  0
SECTION
  2
HEADER
  9
$ACADVER
  1
AC1015
  9
$ACADMAINTVER
 70
     6
  9
$DWGCODEPAGE
  3
ANSI_1254
  9
$INSBASE
 10
0.0
 20
0.0
 30
0.0
  9
$EXTMIN
 10
0.0
 20
0.0
 30
0.0
  9
$EXTMAX
 10
279.4
 20
215.9
 30
0.0
  9
$LIMMIN
 10
0.0
 20
0.0
  9
$LIMMAX
 10
279.4
 20
215.9
  9
$ORTHOMODE
 70
     0
  9
$REGENMODE
 70
     1
  9
$FILLMODE
 70
     1
  9
$QTEXTMODE
 70
     0
  9
$MIRRTEXT
 70
     1
  9
$LTSCALE
 40
1.0
  9
$ATTMODE
 70
     1
  9
$TEXTSIZE
 40
3.5
  9
$TRACEWID
 40
1.0
  9
$TEXTSTYLE
  7
Standard
  9
$CLAYER
  8
0
  9
$CELTYPE
  6
ByLayer
  9
$CECOLOR
 62
   256
  9
$CELTSCALE
 40
1.0
  9
$DISPSILH
 70
     0
  9
$DIMSCALE
 40
1.0
  9
$DIMASZ
 40
3.5
  9
$DIMEXO
 40
1.0
  9
$DIMDLI
 40
3.75
  9
$DIMRND
 40
0.0
  9
$DIMDLE
 40
0.0
  9
$DIMEXE
 40
1.0
  9
$DIMTP
 40
0.0
  9
$DIMTM
 40
0.0
  9
$DIMTXT
 40
3.5
  9
$DIMCEN
 40
2.5
  9
$DIMTSZ
 40
0.0
  9
$DIMTOL
 70
     0
  9
$DIMLIM
 70
     0
  9
$DIMTIH
 70
     1
  9
$DIMTOH
 70
     1
  9
$DIMSE1
 70
     0
  9
$DIMSE2
 70
     0
  9
$DIMTAD
 70
     1
  9
$DIMZIN
 70
     0
  9
$DIMBLK
  1

  9
$DIMASO
 70
     1
  9
$DIMSHO
 70
     1
  9
$DIMPOST
  1

  9
$DIMAPOST
  1

  9
$DIMALT
 70
     0
  9
$DIMALTD
 70
     3
  9
$DIMALTF
 40
0.0393700787
  9
$DIMLFAC
 40
1.0
  9
$DIMTOFL
 70
     1
  9
$DIMTVP
 40
0.0
  9
$DIMTIX
 70
     0
  9
$DIMSOXD
 70
     0
  9
$DIMSAH
 70
     0
  9
$DIMBLK1
  1

  9
$DIMBLK2
  1

  9
$DIMSTYLE
  2
ISO-25
  9
$DIMCLRD
 70
     0
  9
$DIMCLRE
 70
     0
  9
$DIMCLRT
 70
     0
  9
$DIMTFAC
 40
1.0
  9
$DIMGAP
 40
1.524
  9
$DIMJUST
 70
     0
  9
$DIMSD1
 70
     0
  9
$DIMSD2
 70
     0
  9
$DIMTOLJ
 70
     0
  9
$DIMTZIN
 70
     0
  9
$DIMALTZ
 70
     0
  9
$DIMALTTZ
 70
     0
  9
$DIMUPT
 70
     0
  9
$DIMDEC
 70
     2
  9
$DIMTDEC
 70
     2
  9
$DIMALTU
 70
     2
  9
$DIMALTTD
 70
     3
  9
$DIMTXSTY
  7
Standard
  9
$DIMAUNIT
 70
     0
  9
$DIMADEC
 70
     2
  9
$DIMALTRND
 40
0.0
  9
$DIMAZIN
 70
     0
  9
$DIMDSEP
 70
    44
  9
$DIMATFIT
 70
     3
  9
$DIMFRAC
 70
     0
  9
$DIMLDRBLK
  1

  9
$DIMLUNIT
 70
     2
  9
$DIMLWD
 70
    -2
  9
$DIMLWE
 70
    -2
  9
$DIMTMOVE
 70
     0
  9
$LUNITS
 70
     2
  9
$LUPREC
 70
     2
  9
$SKETCHINC
 40
1.0
  9
$FILLETRAD
 40
10.0
  9
$AUNITS
 70
     0
  9
$AUPREC
 70
     2
  9
$MENU
  1
.
  9
$ELEVATION
 40
0.0
  9
$PELEVATION
 40
0.0
  9
$THICKNESS
 40
0.0
  9
$LIMCHECK
 70
     0
  9
$CHAMFERA
 40
0.0
  9
$CHAMFERB
 40
0.0
  9
$CHAMFERC
 40
0.0
  9
$CHAMFERD
 40
0.0
  9
$SKPOLY
 70
     0
  9
$TDCREATE
 40
2458985.682448808
  9
$TDUCREATE
 40
2458985.557448808
  9
$TDUPDATE
 40
2458985.682449178
  9
$TDUUPDATE
 40
2458985.557449178
  9
$TDINDWG
 40
0.0000000116
  9
$TDUSRTIMER
 40
0.0000000116
  9
$USRTIMER
 70
     1
  9
$ANGBASE
 50
0.0
  9
$ANGDIR
 70
     0
  9
$PDMODE
 70
     0
  9
$PDSIZE
 40
-1.0
  9
$PLINEWID
 40
0.0
  9
$SPLFRAME
 70
     0
  9
$SPLINETYPE
 70
     6
  9
$SPLINESEGS
 70
     8
  9
$HANDSEED
  5
CB
  9
$SURFTAB1
 70
     6
  9
$SURFTAB2
 70
     6
  9
$SURFTYPE
 70
     6
  9
$SURFU
 70
     6
  9
$SURFV
 70
     6
  9
$UCSBASE
  2

  9
$UCSNAME
  2

  9
$UCSORG
 10
0.0
 20
0.0
 30
0.0
  9
$UCSXDIR
 10
1.0
 20
0.0
 30
0.0
  9
$UCSYDIR
 10
0.0
 20
1.0
 30
0.0
  9
$UCSORTHOREF
  2

  9
$UCSORTHOVIEW
 70
     0
  9
$UCSORGTOP
 10
0.0
 20
0.0
 30
0.0
  9
$UCSORGBOTTOM
 10
0.0
 20
0.0
 30
0.0
  9
$UCSORGLEFT
 10
0.0
 20
0.0
 30
0.0
  9
$UCSORGRIGHT
 10
0.0
 20
0.0
 30
0.0
  9
$UCSORGFRONT
 10
0.0
 20
0.0
 30
0.0
  9
$UCSORGBACK
 10
0.0
 20
0.0
 30
0.0
  9
$PUCSBASE
  2

  9
$PUCSNAME
  2

  9
$PUCSORG
 10
0.0
 20
0.0
 30
0.0
  9
$PUCSXDIR
 10
1.0
 20
0.0
 30
0.0
  9
$PUCSYDIR
 10
0.0
 20
1.0
 30
0.0
  9
$PUCSORTHOREF
  2

  9
$PUCSORTHOVIEW
 70
     0
  9
$PUCSORGTOP
 10
0.0
 20
0.0
 30
0.0
  9
$PUCSORGBOTTOM
 10
0.0
 20
0.0
 30
0.0
  9
$PUCSORGLEFT
 10
0.0
 20
0.0
 30
0.0
  9
$PUCSORGRIGHT
 10
0.0
 20
0.0
 30
0.0
  9
$PUCSORGFRONT
 10
0.0
 20
0.0
 30
0.0
  9
$PUCSORGBACK
 10
0.0
 20
0.0
 30
0.0
  9
$USERI1
 70
     0
  9
$USERI2
 70
     0
  9
$USERI3
 70
     0
  9
$USERI4
 70
     0
  9
$USERI5
 70
     0
  9
$USERR1
 40
0.0
  9
$USERR2
 40
0.0
  9
$USERR3
 40
0.0
  9
$USERR4
 40
0.0
  9
$USERR5
 40
0.0
  9
$WORLDVIEW
 70
     1
  9
$SHADEDGE
 70
     3
  9
$SHADEDIF
 70
    70
  9
$TILEMODE
 70
     1
  9
$MAXACTVP
 70
    64
  9
$PINSBASE
 10
0.0
 20
0.0
 30
0.0
  9
$PLIMCHECK
 70
     0
  9
$PEXTMIN
 10
1.0000000000E+20
 20
1.0000000000E+20
 30
1.0000000000E+20
  9
$PEXTMAX
 10
-1.0000000000E+20
 20
-1.0000000000E+20
 30
-1.0000000000E+20
  9
$PLIMMIN
 10
0.0
 20
0.0
  9
$PLIMMAX
 10
420.0
 20
297.0
  9
$UNITMODE
 70
     0
  9
$VISRETAIN
 70
     1
  9
$PLINEGEN
 70
     0
  9
$PSLTSCALE
 70
     1
  9
$TREEDEPTH
 70
  3020
  9
$CMLSTYLE
  2
Standard
  9
$CMLJUST
 70
     0
  9
$CMLSCALE
 40
20.0
  9
$PROXYGRAPHICS
 70
     1
  9
$MEASUREMENT
 70
     1
  9
$CELWEIGHT
370
    -1
  9
$ENDCAPS
280
     0
  9
$JOINSTYLE
280
     0
  9
$LWDISPLAY
290
     1
  9
$INSUNITS
 70
     4
  9
$HYPERLINKBASE
  1

  9
$STYLESHEET
  1

  9
$XEDIT
290
     1
  9
$CEPSNTYPE
380
     0
  9
$PSTYLEMODE
290
     1
  9
$FINGERPRINTGUID
  2
{b22420a4-7fe7-4f14-9954-999b25a037fa}
  9
$VERSIONGUID
  2
{FAEB1C32-E019-11D5-929B-00C0DF256EC4}
  9
$EXTNAMES
290
     1
  9
$PSVPSCALE
 40
0.0
  9
$OLESTARTUP
290
     0
  0
ENDSEC
  0
SECTION
  2
CLASSES
  0
CLASS
  1
ACDBDICTIONARYWDFLT
  2
AcDbDictionaryWithDefault
  3
ObjectDBX Classes
 90
        0
280
     0
281
     0
  0
CLASS
  1
VISUALSTYLE
  2
AcDbVisualStyle
  3
ObjectDBX Classes
 90
     4095
280
     0
281
     0
  0
CLASS
  1
MATERIAL
  2
AcDbMaterial
  3
ObjectDBX Classes
 90
     1153
280
     0
281
     0
  0
CLASS
  1
SCALE
  2
AcDbScale
  3
ObjectDBX Classes
 90
     1153
280
     0
281
     0
  0
CLASS
  1
TABLESTYLE
  2
AcDbTableStyle
  3
ObjectDBX Classes
 90
     4095
280
     0
281
     0
  0
CLASS
  1
MLEADERSTYLE
  2
AcDbMLeaderStyle
  3
ACDB_MLEADERSTYLE_CLASS
 90
     4095
280
     0
281
     0
  0
CLASS
  1
SUN
  2
AcDbSun
  3
SCENEOE
 90
     1153
280
     0
281
     0
  0
CLASS
  1
ACDBPLACEHOLDER
  2
AcDbPlaceHolder
  3
ObjectDBX Classes
 90
        0
280
     0
281
     0
  0
CLASS
  1
LAYOUT
  2
AcDbLayout
  3
ObjectDBX Classes
 90
        0
280
     0
281
     0
  0
ENDSEC
  0
SECTION
  2
TABLES
  0
TABLE
  2
VPORT
  5
8
330
0
100
AcDbSymbolTable
 70
     1
  0
VPORT
  5
29
330
8
100
AcDbSymbolTableRecord
100
AcDbViewportTableRecord
  2
*Active
 70
     0
 10
0.0
 20
0.0
 11
1.0
 21
1.0
 12
139.7
 22
107.95
 13
0.0
 23
0.0
 14
10.0
 24
10.0
 15
10.0
 25
10.0
 16
0.0
 26
0.0
 36
1.0
 17
0.0
 27
0.0
 37
0.0
 40
215.9
 41
1.2941176471
 42
50.0
 43
0.0
 44
0.0
 50
0.0
 51
0.0
 71
     0
 72
  2000
 73
     1
 74
     3
 75
     0
 76
     0
 77
     0
 78
     0
281
     0
 65
     1
110
0.0
120
0.0
130
0.0
111
1.0
121
0.0
131
0.0
112
0.0
122
1.0
132
0.0
 79
     0
146
0.0
  0
ENDTAB
  0
TABLE
  2
LTYPE
  5
5
330
0
100
AcDbSymbolTable
 70
     6
  0
LTYPE
  5
14
330
5
100
AcDbSymbolTableRecord
100
AcDbLinetypeTableRecord
  2
ByBlock
 70
     0
  3

 72
    65
 73
     0
 40
0.0
  0
LTYPE
  5
15
330
5
100
AcDbSymbolTableRecord
100
AcDbLinetypeTableRecord
  2
ByLayer
 70
     0
  3

 72
    65
 73
     0
 40
0.0
  0
LTYPE
  5
16
330
5
100
AcDbSymbolTableRecord
100
AcDbLinetypeTableRecord
  2
Continuous
 70
     0
  3
Solid line
 72
    65
 73
     0
 40
0.0
  0
LTYPE
  5
6E
330
5
100
AcDbSymbolTableRecord
100
AcDbLinetypeTableRecord
  2
HIDDEN
 70
     0
  3
Hidden __ __ __ __ __ __ __ __ __ __ __ __ __ __
 72
    65
 73
     2
 40
1.905
 49
1.27
 74
     0
 49
-0.635
 74
     0
  0
LTYPE
  5
6F
330
5
100
AcDbSymbolTableRecord
100
AcDbLinetypeTableRecord
  2
PHANTOM
 70
     0
  3
Phantom ______  __  __  ______  __  __  ______
 72
    65
 73
     6
 40
12.7
 49
6.35
 74
     0
 49
-1.27
 74
     0
 49
1.27
 74
     0
 49
-1.27
 74
     0
 49
1.27
 74
     0
 49
-1.27
 74
     0
  0
LTYPE
  5
70
330
5
100
AcDbSymbolTableRecord
100
AcDbLinetypeTableRecord
  2
CENTER
 70
     0
  3
Center ____ _ ____ _ ____ _ ____ _ ____ _ ____
 72
    65
 73
     4
 40
10.16
 49
6.35
 74
     0
 49
-1.27
 74
     0
 49
1.27
 74
     0
 49
-1.27
 74
     0
  0
LTYPE
  5
71
330
5
100
AcDbSymbolTableRecord
100
AcDbLinetypeTableRecord
  2
CENTERX2
 70
     0
  3
Center (2x) ________  __  ________  __  _____
 72
    65
 73
     4
 40
20.32
 49
12.7
 74
     0
 49
-2.54
 74
     0
 49
2.54
 74
     0
 49
-2.54
 74
     0
  0
LTYPE
  5
72
330
5
100
AcDbSymbolTableRecord
100
AcDbLinetypeTableRecord
  2
DOT2
 70
     0
  3
Dot (.5x) ........................................
 72
    65
 73
     2
 40
0.635
 49
0.0
 74
     0
 49
-0.635
 74
     0
  0
ENDTAB
  0
TABLE
  2
LAYER
  5
2
330
0
100
AcDbSymbolTable
 70
    17
  0
LAYER
  5
10
330
2
100
AcDbSymbolTableRecord
100
AcDbLayerTableRecord
  2
0
 70
     0
 62
     7
  6
Continuous
370
    -3
390
F
  0
LAYER
  5
73
330
2
100
AcDbSymbolTableRecord
100
AcDbLayerTableRecord
  2
FORMAT
 70
     0
 62
     7
  6
Continuous
370
    -3
390
F
  0
LAYER
  5
74
330
2
100
AcDbSymbolTableRecord
100
AcDbLayerTableRecord
  2
YARDIMCI_GEOMETRI
 70
     0
 62
    -6
  6
Continuous
290
     0
370
    -3
390
F
  0
LAYER
  5
75
330
2
100
AcDbSymbolTableRecord
100
AcDbLayerTableRecord
  2
SAYFA_CERCEVESI
 70
     0
 62
     7
  6
Continuous
370
    25
390
F
  0
LAYER
  5
76
330
2
100
AcDbSymbolTableRecord
100
AcDbLayerTableRecord
  2
ANTET
 70
     0
 62
     7
  6
Continuous
370
    -3
390
F
  0
LAYER
  5
77
330
2
100
AcDbSymbolTableRecord
100
AcDbLayerTableRecord
  2
OLCU
 70
     0
 62
   150
  6
Continuous
370
    -3
390
F
  0
LAYER
  5
78
330
2
100
AcDbSymbolTableRecord
100
AcDbLayerTableRecord
  2
METIN
 70
     0
 62
    96
  6
Continuous
370
    -3
390
F
  0
LAYER
  5
79
330
2
100
AcDbSymbolTableRecord
100
AcDbLayerTableRecord
  2
BALON
 70
     0
 62
     5
  6
Continuous
370
    -3
390
F
  0
LAYER
  5
7A
330
2
100
AcDbSymbolTableRecord
100
AcDbLayerTableRecord
  2
VURGU
 70
     0
 62
     7
  6
Continuous
370
    -3
390
F
  0
LAYER
  5
7B
330
2
100
AcDbSymbolTableRecord
100
AcDbLayerTableRecord
  2
SILIK
 70
     0
 62
     7
  6
Continuous
370
    -3
390
F
  0
LAYER
  5
7C
330
2
100
AcDbSymbolTableRecord
100
AcDbLayerTableRecord
  2
MODEL
 70
     0
 62
     7
  6
Continuous
370
    -3
390
F
  0
LAYER
  5
7D
330
2
100
AcDbSymbolTableRecord
100
AcDbLayerTableRecord
  2
DETAYLANDıRMA
 70
     0
 62
   190
  6
Continuous
370
    -3
390
F
  0
LAYER
  5
7E
330
2
100
AcDbSymbolTableRecord
100
AcDbLayerTableRecord
  2
TOLERANS
 70
     0
 62
   230
  6
Continuous
370
    -3
390
F
  0
LAYER
  5
7F
330
2
100
AcDbSymbolTableRecord
100
AcDbLayerTableRecord
  2
MERKEZ_CIZGILERI
 70
     0
 62
    30
  6
Continuous
370
    -3
390
F
  0
LAYER
  5
80
330
2
100
AcDbSymbolTableRecord
100
AcDbLayerTableRecord
  2
KESIT-DETAY_CIZGILERI
 70
     0
 62
     7
  6
Continuous
370
    -3
390
F
  0
LAYER
  5
81
330
2
100
AcDbSymbolTableRecord
100
AcDbLayerTableRecord
  2
\U+041E\U+0421\U+0415\U+0412\U+042B\U+0415
 70
     0
 62
     7
  6
Continuous
370
    -3
390
F
  0
LAYER
  5
82
330
2
100
AcDbSymbolTableRecord
100
AcDbLayerTableRecord
  2
\U+0412\U+041E\U+0414\U+042F\U+041D\U+042B\U+0415_\U+0417\U+041D\U+0410\U+041A\U+0418
 70
     0
 62
    11
  6
Continuous
370
    -3
390
F
  0
ENDTAB
  0
TABLE
  2
STYLE
  5
3
330
0
100
AcDbSymbolTable
 70
     1
  0
STYLE
  5
11
330
3
100
AcDbSymbolTableRecord
100
AcDbTextStyleTableRecord
  2
Standard
 70
     0
 40
0.0
 41
1.0
 50
0.0
 71
     0
 42
3.5
  3
txt
  4

  0
ENDTAB
  0
TABLE
  2
VIEW
  5
6
330
0
100
AcDbSymbolTable
 70
     0
  0
ENDTAB
  0
TABLE
  2
UCS
  5
7
330
0
100
AcDbSymbolTable
 70
     0
  0
ENDTAB
  0
TABLE
  2
APPID
  5
9
330
0
100
AcDbSymbolTable
 70
     1
  0
APPID
  5
12
330
9
100
AcDbSymbolTableRecord
100
AcDbRegAppTableRecord
  2
ACAD
 70
     0
  0
ENDTAB
  0
TABLE
  2
DIMSTYLE
  5
A
330
0
100
AcDbSymbolTable
 70
     1
100
AcDbDimStyleTable
  0
DIMSTYLE
105
27
330
A
100
AcDbSymbolTableRecord
100
AcDbDimStyleTableRecord
  2
ISO-25
 70
     0
 41
2.5
 42
0.625
 43
3.75
 44
1.25
 73
     0
 74
     0
 77
     1
 78
     8
140
2.5
141
2.5
143
0.0393700787
147
0.625
171
     3
172
     1
178
     0
271
     2
272
     2
274
     3
278
    44
283
     0
284
     8
340
11
  0
ENDTAB
  0
TABLE
  2
BLOCK_RECORD
  5
1
330
0
100
AcDbSymbolTable
 70
     3
  0
BLOCK_RECORD
  5
1F
330
1
100
AcDbSymbolTableRecord
100
AcDbBlockTableRecord
  2
*Model_Space
340
22
  0
BLOCK_RECORD
  5
1B
330
1
100
AcDbSymbolTableRecord
100
AcDbBlockTableRecord
  2
*Paper_Space
340
1E
  0
BLOCK_RECORD
  5
23
330
1
100
AcDbSymbolTableRecord
100
AcDbBlockTableRecord
  2
*Paper_Space0
340
26
  0
BLOCK_RECORD
  5
88
330
1
100
AcDbSymbolTableRecord
100
AcDbBlockTableRecord
  2
SW_CENTERMARKSYMBOL_0
340
0
102
{BLKREFS
331
93
102
}
  0
BLOCK_RECORD
  5
B2
330
1
100
AcDbSymbolTableRecord
100
AcDbBlockTableRecord
  2
SW_CENTERMARKSYMBOL_1
340
0
102
{BLKREFS
331
BD
102
}
  0
ENDTAB
  0
ENDSEC
  0
SECTION
  2
BLOCKS
  0
BLOCK
  5
20
330
1F
100
AcDbEntity
  8
0
100
AcDbBlockBegin
  2
*Model_Space
 70
     0
 10
0.0
 20
0.0
 30
0.0
  3
*Model_Space
  1

  0
ENDBLK
  5
21
330
1F
100
AcDbEntity
  8
0
100
AcDbBlockEnd
  0
BLOCK
  5
1C
330
1B
100
AcDbEntity
 67
     1
  8
0
100
AcDbBlockBegin
  2
*Paper_Space
 70
     0
 10
0.0
 20
0.0
 30
0.0
  3
*Paper_Space
  1

  0
ENDBLK
  5
1D
330
1B
100
AcDbEntity
 67
     1
  8
0
100
AcDbBlockEnd
  0
BLOCK
  5
24
330
23
100
AcDbEntity
  8
0
100
AcDbBlockBegin
  2
*Paper_Space0
 70
     0
 10
0.0
 20
0.0
 30
0.0
  3
*Paper_Space0
  1

  0
ENDBLK
  5
25
330
23
100
AcDbEntity
  8
0
100
AcDbBlockEnd
  0
BLOCK
  5
89
330
88
100
AcDbEntity
  8
0
100
AcDbBlockBegin
  2
SW_CENTERMARKSYMBOL_0
 70
     0
 10
0.0
 20
0.0
 30
0.0
  3
SW_CENTERMARKSYMBOL_0
  1

  0
LINE
  5
8B
330
88
100
AcDbEntity
  8
FORMAT
 62
     0
100
AcDbLine
 10
0.0
 20
0.0
 30
0.0
 11
0.0
 21
2.5
 31
0.0
  0
LINE
  5
8C
330
88
100
AcDbEntity
  8
FORMAT
 62
     0
100
AcDbLine
 10
0.0
 20
0.0
 30
0.0
 11
-2.5
 21
0.0
 31
0.0
  0
LINE
  5
8D
330
88
100
AcDbEntity
  8
FORMAT
 62
     0
100
AcDbLine
 10
0.0
 20
0.0
 30
0.0
 11
0.0
 21
-2.5
 31
0.0
  0
LINE
  5
8E
330
88
100
AcDbEntity
  8
FORMAT
 62
     0
100
AcDbLine
 10
0.0
 20
0.0
 30
0.0
 11
2.5
 21
0.0
 31
0.0
  0
LINE
  5
8F
330
88
100
AcDbEntity
  8
FORMAT
 62
     0
100
AcDbLine
 10
0.0
 20
5.0
 30
0.0
 11
0.0
 21
65.0
 31
0.0
  0
LINE
  5
90
330
88
100
AcDbEntity
  8
FORMAT
 62
     0
100
AcDbLine
 10
-5.0
 20
0.0
 30
0.0
 11
-65.0
 21
0.0
 31
0.0
  0
LINE
  5
91
330
88
100
AcDbEntity
  8
FORMAT
 62
     0
100
AcDbLine
 10
0.0
 20
-5.0
 30
0.0
 11
0.0
 21
-65.0
 31
0.0
  0
LINE
  5
92
330
88
100
AcDbEntity
  8
FORMAT
 62
     0
100
AcDbLine
 10
5.0
 20
0.0
 30
0.0
 11
65.0
 21
0.0
 31
0.0
  0
ENDBLK
  5
8A
330
88
100
AcDbEntity
  8
0
100
AcDbBlockEnd
  0
BLOCK
  5
B3
330
B2
100
AcDbEntity
  8
0
100
AcDbBlockBegin
  2
SW_CENTERMARKSYMBOL_1
 70
     0
 10
0.0
 20
0.0
 30
0.0
  3
SW_CENTERMARKSYMBOL_1
  1

  0
LINE
  5
B5
330
B2
100
AcDbEntity
  8
FORMAT
 62
     0
100
AcDbLine
 10
0.0
 20
0.0
 30
0.0
 11
0.0
 21
2.5
 31
0.0
  0
LINE
  5
B6
330
B2
100
AcDbEntity
  8
FORMAT
 62
     0
100
AcDbLine
 10
0.0
 20
0.0
 30
0.0
 11
-2.5
 21
0.0
 31
0.0
  0
LINE
  5
B7
330
B2
100
AcDbEntity
  8
FORMAT
 62
     0
100
AcDbLine
 10
0.0
 20
0.0
 30
0.0
 11
0.0
 21
-2.5
 31
0.0
  0
LINE
  5
B8
330
B2
100
AcDbEntity
  8
FORMAT
 62
     0
100
AcDbLine
 10
0.0
 20
0.0
 30
0.0
 11
2.5
 21
0.0
 31
0.0
  0
LINE
  5
B9
330
B2
100
AcDbEntity
  8
FORMAT
 62
     0
100
AcDbLine
 10
0.0
 20
5.0
 30
0.0
 11
0.0
 21
47.5
 31
0.0
  0
LINE
  5
BA
330
B2
100
AcDbEntity
  8
FORMAT
 62
     0
100
AcDbLine
 10
-5.0
 20
0.0
 30
0.0
 11
-47.5
 21
0.0
 31
0.0
  0
LINE
  5
BB
330
B2
100
AcDbEntity
  8
FORMAT
 62
     0
100
AcDbLine
 10
0.0
 20
-5.0
 30
0.0
 11
0.0
 21
-47.5
 31
0.0
  0
LINE
  5
BC
330
B2
100
AcDbEntity
  8
FORMAT
 62
     0
100
AcDbLine
 10
5.0
 20
0.0
 30
0.0
 11
47.5
 21
0.0
 31
0.0
  0
ENDBLK
  5
B4
330
B2
100
AcDbEntity
  8
0
100
AcDbBlockEnd
  0
ENDSEC
  0
SECTION
  2
ENTITIES
  0
LINE
  5
83
330
1F
100
AcDbEntity
  8
0
  6
Continuous
 62
     7
370
    25
100
AcDbLine
 10
127.2435239065
 20
66.5878686308
 30
0.0
 11
255.7787464055
 21
66.5878686308
 31
0.0
  0
LINE
  5
84
330
1F
100
AcDbEntity
  8
0
  6
Continuous
 62
     7
370
    25
100
AcDbLine
 10
255.7787464055
 20
156.5878686308
 30
0.0
 11
127.1921097378
 21
156.5878686308
 31
0.0
  0
CIRCLE
  5
85
330
1F
100
AcDbEntity
  8
0
  6
Continuous
 62
     7
370
    25
100
AcDbCircle
 10
83.7787464055
 20
111.5878686308
 30
0.0
 40
51.10000000000001
  0
CIRCLE
  5
86
330
1F
100
AcDbEntity
  8
0
  6
Continuous
 62
     7
370
    25
100
AcDbCircle
 10
83.7787464055
 20
111.5878686308
 30
0.0
 40
62.50000000000001
  0
LINE
  5
87
330
1F
100
AcDbEntity
  8
0
  6
Continuous
 62
     7
370
    25
100
AcDbLine
 10
255.7787464055
 20
156.5878686308
 30
0.0
 11
255.7787464055
 21
66.5878686308
 31
0.0
  0
INSERT
  5
93
330
1F
100
AcDbEntity
  8
FORMAT
100
AcDbBlockReference
  2
SW_CENTERMARKSYMBOL_0
 10
83.7787464055
 20
111.5878686308
 30
0.0
  0
LINE
  5
94
330
1F
100
AcDbEntity
  8
0
  6
Continuous
 62
     7
370
    25
100
AcDbLine
 10
21.2787464055
 20
-12.3215011626
 30
0.0
 11
21.2787464055
 21
-368.3215011626
 31
0.0
  0
LINE
  5
95
330
1F
100
AcDbEntity
  8
0
  6
Continuous
 62
     7
370
    25
100
AcDbLine
 10
146.2787464055
 20
-145.399939497
 30
0.0
 11
146.2787464055
 21
-12.3215011626
 31
0.0
  0
LINE
  5
96
330
1F
100
AcDbEntity
  8
0
  6
Continuous
 62
     7
370
    25
100
AcDbLine
 10
146.2787464055
 20
-368.3215011626
 30
0.0
 11
146.2787464055
 21
-235.3215011626
 31
0.0
  0
LINE
  5
97
330
1F
100
AcDbEntity
  8
0
  6
Continuous
 62
     7
370
    25
100
AcDbLine
 10
146.2787464055
 20
-235.3215011626
 30
0.0
 11
255.7787464055
 21
-235.3215011626
 31
0.0
  0
LINE
  5
98
330
1F
100
AcDbEntity
  8
0
  6
Continuous
 62
     7
370
    25
100
AcDbLine
 10
255.7787464055
 20
-145.3215011626
 30
0.0
 11
146.2223818376
 21
-145.3215011626
 31
0.0
  0
SPLINE
  5
99
330
1F
100
AcDbEntity
  8
0
  6
Continuous
 62
     7
370
    25
100
AcDbSpline
210
0.0
220
0.0
230
1.0
 70
     8
 71
     3
 72
    37
 73
    33
 74
     0
 42
0.000000001
 43
0.00000001
 40
0.0
 40
0.0
 40
0.0
 40
0.0
 40
0.0095577882306397
 40
0.0320479732643538
 40
0.0545390842079859
 40
0.0959918497071701
 40
0.1384717125402379
 40
0.183668035013988
 40
0.2298131957806912
 40
0.283213500485101
 40
0.3105533432491316
 40
0.3378913990816721
 40
0.3837092545444458
 40
0.4072015167258891
 40
0.4306883108147172
 40
0.4672712918399038
 40
0.5048764166874781
 40
0.541482024129901
 40
0.5791263508721862
 40
0.6034298420904288
 40
0.6277390502161445
 40
0.6776800404695515
 40
0.7278586363782594
 40
0.7790565773667675
 40
0.8087013762421095
 40
0.838341762406625
 40
0.8691246847508703
 40
0.8999005723261027
 40
0.924450260232067
 40
0.9489973984103324
 40
0.9744993157228721
 40
1.0
 40
1.0
 40
1.0
 40
1.0
 10
146.2223382299806
 20
-145.3999394970359
 30
0.0
 10
146.2409998631791
 20
-145.3739875158645
 30
0.0
 10
146.3035737042587
 20
-145.2869685969821
 30
0.0
 10
146.1141455867743
 20
-145.5500296092025
 30
0.0
 10
145.7086648000461
 20
-146.1157385393851
 30
0.0
 10
144.7998305995363
 20
-147.3925044133943
 30
0.0
 10
143.2064139317972
 20
-149.6810030226522
 30
0.0
 10
141.1167573468298
 20
-152.7883854476604
 30
0.0
 10
138.5208653187154
 20
-156.8603680856436
 30
0.0
 10
136.0707588002602
 20
-161.0355297041845
 30
0.0
 10
133.9967507378048
 20
-164.964526576148
 30
0.0
 10
132.1243792038315
 20
-168.8490558528129
 30
0.0
 10
130.4596227124407
 20
-172.8820369053274
 30
0.0
 10
129.1179070818908
 20
-177.0003557082604
 30
0.0
 10
128.1100593476998
 20
-180.8496153291022
 30
0.0
 10
127.3033410901764
 20
-185.5371644794999
 30
0.0
 10
127.0405527063582
 20
-190.9996908169647
 30
0.0
 10
127.4794838794951
 20
-196.4904491938023
 30
0.0
 10
128.423505483299
 20
-201.1705892805088
 30
0.0
 10
129.5609618992914
 20
-205.0821726684495
 30
0.0
 10
131.0798337470904
 20
-209.3723199185183
 30
0.0
 10
133.3152360986344
 20
-214.4267922502102
 30
0.0
 10
136.2401533221073
 20
-219.9367723398892
 30
0.0
 10
138.7470045304848
 20
-224.1272701399537
 30
0.0
 10
140.7152531332846
 20
-227.2214818194281
 30
0.0
 10
142.1954292577619
 20
-229.4629728687399
 30
0.0
 10
143.5209248237959
 20
-231.4124862927696
 30
0.0
 10
144.5691495611906
 20
-232.9182241902519
 30
0.0
 10
145.3378992417166
 20
-234.0069464412026
 30
0.0
 10
145.8680608414966
 20
-234.7499248907833
 30
0.0
 10
146.2124187664002
 20
-235.2296709765883
 30
0.0
 10
146.2566375488142
 20
-235.2908915939567
 30
0.0
 10
146.2787464055061
 20
-235.3215011626081
 30
0.0
  0
LINE
  5
9A
330
1F
100
AcDbEntity
  8
0
  6
Continuous
 62
     7
370
    25
100
AcDbLine
 10
146.2787464055
 20
-368.3215011626
 30
0.0
 11
21.2787464055
 21
-368.3215011626
 31
0.0
  0
LINE
  5
9B
330
1F
100
AcDbEntity
  8
0
  6
Continuous
 62
     7
370
    25
100
AcDbLine
 10
146.2787464055
 20
-12.3215011626
 30
0.0
 11
21.2787464055
 21
-12.3215011626
 31
0.0
  0
LINE
  5
9C
330
1F
100
AcDbEntity
  8
0
  6
Continuous
 62
     7
370
    25
100
AcDbLine
 10
255.7787464055
 20
-145.3215011626
 30
0.0
 11
255.7787464055
 21
-235.3215011626
 31
0.0
  0
LINE
  5
9D
330
1F
100
AcDbEntity
  8
0
  6
Continuous
 62
     7
370
    25
100
AcDbLine
 10
146.2787464055
 20
478.371192371
 30
0.0
 11
146.2787464055
 21
611.371192371
 31
0.0
  0
LINE
  5
9E
330
1F
100
AcDbEntity
  8
0
  6
Continuous
 62
     7
370
    25
100
AcDbLine
 10
146.2787464055
 20
255.371192371
 30
0.0
 11
146.2787464055
 21
388.371192371
 31
0.0
  0
LINE
  5
9F
330
1F
100
AcDbEntity
  8
0
  6
Continuous
 62
     7
370
    25
100
AcDbLine
 10
21.2787464055
 20
611.371192371
 30
0.0
 11
21.2787464055
 21
255.371192371
 31
0.0
  0
LINE
  5
A0
330
1F
100
AcDbEntity
  8
0
  6
Continuous
 62
     7
370
    25
100
AcDbLine
 10
146.2787464055
 20
388.371192371
 30
0.0
 11
255.7787464055
 21
388.371192371
 31
0.0
  0
LINE
  5
A1
330
1F
100
AcDbEntity
  8
0
  6
Continuous
 62
     7
370
    25
100
AcDbLine
 10
255.7787464055
 20
478.371192371
 30
0.0
 11
146.2787464055
 21
478.371192371
 31
0.0
  0
SPLINE
  5
A2
330
1F
100
AcDbEntity
  8
0
  6
Continuous
 62
     7
370
    25
100
AcDbSpline
210
0.0
220
0.0
230
1.0
 70
     8
 71
     3
 72
    36
 73
    32
 74
     0
 42
0.000000001
 43
0.00000001
 40
0.0
 40
0.0
 40
0.0
 40
0.0
 40
0.0444506749767747
 40
0.0673361108070237
 40
0.0904031209992034
 40
0.1348195669446896
 40
0.1803351788047189
 40
0.2288898171028496
 40
0.2784535488670961
 40
0.307075110221918
 40
0.3358837952705337
 40
0.3653294274351913
 40
0.3950333929713354
 40
0.4337849032030768
 40
0.4735214387953239
 40
0.5123311547295724
 40
0.5524890929167839
 40
0.5743052719050326
 40
0.5962947821828585
 40
0.6413190604049622
 40
0.6702069933439858
 40
0.6993072202292104
 40
0.7290279097844188
 40
0.7589540463988671
 40
0.7880652741983791
 40
0.8173908348831022
 40
0.8474606455215365
 40
0.877825419365976
 40
0.921323528176759
 40
0.9660274940038518
 40
1.0
 40
1.0
 40
1.0
 40
1.0
 10
146.2787464055061
 20
478.3711923710046
 30
0.0
 10
146.2147567798439
 20
478.2825675082289
 30
0.0
 10
146.1178220870335
 20
478.1483141232523
 30
0.0
 10
145.5260307681865
 20
477.3208270076754
 30
0.0
 10
144.7406071527857
 20
476.2128903902234
 30
0.0
 10
143.3839690769761
 20
474.2710135526578
 30
0.0
 10
141.2538900282556
 20
471.1140599022683
 30
0.0
 10
138.6869718486183
 20
467.1015609861565
 30
0.0
 10
136.248941122565
 20
462.9663624576749
 30
0.0
 10
134.1914149064384
 20
459.1144293056987
 30
0.0
 10
132.5646474268606
 20
455.775579577362
 30
0.0
 10
131.0150389938973
 20
452.1836097308422
 30
0.0
 10
129.4705202001514
 20
447.9536882210394
 30
0.0
 10
128.0966345783975
 20
442.995016494972
 30
0.0
 10
127.205428848203
 20
437.3352542927998
 30
0.0
 10
127.0616975000551
 20
431.4717905948051
 30
0.0
 10
127.6111237663203
 20
426.5470997436202
 30
0.0
 10
128.4401314698185
 20
422.586275845162
 30
0.0
 10
129.5526442010507
 20
418.5205954081852
 30
0.0
 10
131.0733048875719
 20
414.3615855627975
 30
0.0
 10
132.9181394184888
 20
410.2103638570526
 30
0.0
 10
134.5745927180968
 20
406.8852313557183
 30
0.0
 10
136.285706971176
 20
403.7428189572198
 30
0.0
 10
137.9850732433174
 20
400.8332719460988
 30
0.0
 10
139.6215966926423
 20
398.1798153950057
 30
0.0
 10
141.1666481391167
 20
395.7799299581196
 30
0.0
 10
142.5953767907902
 20
393.6361159254366
 30
0.0
 10
144.0435659491676
 20
391.522307093203
 30
0.0
 10
145.3206340763881
 20
389.7065808026271
 30
0.0
 10
146.1677174724622
 20
388.5251464223119
 30
0.0
 10
146.205865785683
 20
388.4724046195341
 30
0.0
 10
146.2223382299806
 20
388.4496307054325
 30
0.0
  0
LINE
  5
A3
330
1F
100
AcDbEntity
  8
0
  6
Continuous
 62
     7
370
    25
100
AcDbLine
 10
21.2787464055
 20
611.371192371
 30
0.0
 11
146.2787464055
 21
611.371192371
 31
0.0
  0
LINE
  5
A4
330
1F
100
AcDbEntity
  8
0
  6
Continuous
 62
     7
370
    25
100
AcDbLine
 10
21.2787464055
 20
255.371192371
 30
0.0
 11
146.2787464055
 21
255.371192371
 31
0.0
  0
LINE
  5
A5
330
1F
100
AcDbEntity
  8
0
  6
Continuous
 62
     7
370
    25
100
AcDbLine
 10
255.7787464055
 20
478.371192371
 30
0.0
 11
255.7787464055
 21
388.371192371
 31
0.0
  0
LINE
  5
A6
330
1F
100
AcDbEntity
  8
0
  6
Continuous
 62
     7
370
    25
100
AcDbLine
 10
292.6167847879
 20
49.0878686308
 30
0.0
 11
648.6167847879
 21
49.0878686308
 31
0.0
  0
LINE
  5
A7
330
1F
100
AcDbEntity
  8
0
  6
Continuous
 62
     7
370
    25
100
AcDbLine
 10
648.6167847879
 20
174.0878686308
 30
0.0
 11
292.6167847879
 21
174.0878686308
 31
0.0
  0
LINE
  5
A8
330
1F
100
AcDbEntity
  8
0
  6
Continuous
 62
     7
370
    25
100
AcDbLine
 10
648.6167847879
 20
174.0878686308
 30
0.0
 11
648.6167847879
 21
49.0878686308
 31
0.0
  0
LINE
  5
A9
330
1F
100
AcDbEntity
  8
0
  6
Continuous
 62
     7
370
    25
100
AcDbLine
 10
292.6167847879
 20
174.0878686308
 30
0.0
 11
292.6167847879
 21
49.0878686308
 31
0.0
  0
LINE
  5
AA
330
1F
100
AcDbEntity
  8
0
  6
Continuous
 62
     7
370
    25
100
AcDbLine
 10
-51.1436469016
 20
174.0878686308
 30
0.0
 11
-407.1436469016
 21
174.0878686308
 31
0.0
  0
LINE
  5
AB
330
1F
100
AcDbEntity
  8
0
  6
Continuous
 62
     7
370
    25
100
AcDbLine
 10
-407.1436469016
 20
49.0878686308
 30
0.0
 11
-51.1436469016
 21
49.0878686308
 31
0.0
  0
CIRCLE
  5
AC
330
1F
100
AcDbEntity
  8
0
  6
Continuous
 62
     7
370
    25
100
AcDbCircle
 10
-229.1436469016
 20
111.5878686308
 30
0.0
 40
36.80000000000001
  0
CIRCLE
  5
AD
330
1F
100
AcDbEntity
  8
0
  6
Continuous
 62
     7
370
    25
100
AcDbCircle
 10
-229.1436469016
 20
111.5878686308
 30
0.0
 40
45.00000000000003
  0
LINE
  5
AE
330
1F
100
AcDbEntity
  8
0
  6
Continuous
 62
     7
370
    25
100
AcDbLine
 10
-407.1436469016
 20
111.5878686308
 30
0.0
 11
-407.1436469016
 21
174.0878686308
 31
0.0
  0
LINE
  5
AF
330
1F
100
AcDbEntity
  8
0
  6
Continuous
 62
     7
370
    25
100
AcDbLine
 10
-407.1436469016
 20
49.0878686308
 30
0.0
 11
-407.1436469016
 21
111.5878686308
 31
0.0
  0
LINE
  5
B0
330
1F
100
AcDbEntity
  8
0
  6
Continuous
 62
     7
370
    25
100
AcDbLine
 10
-51.1436469016
 20
111.5878686308
 30
0.0
 11
-51.1436469016
 21
174.0878686308
 31
0.0
  0
LINE
  5
B1
330
1F
100
AcDbEntity
  8
0
  6
Continuous
 62
     7
370
    25
100
AcDbLine
 10
-51.1436469016
 20
49.0878686308
 30
0.0
 11
-51.1436469016
 21
111.5878686308
 31
0.0
  0
INSERT
  5
BD
330
1F
100
AcDbEntity
  8
FORMAT
100
AcDbBlockReference
  2
SW_CENTERMARKSYMBOL_1
 10
-229.1436469016
 20
111.5878686308
 30
0.0
  0
LINE
  5
BE
330
1F
100
AcDbEntity
  8
0
  6
Continuous
 62
     7
370
    25
100
AcDbLine
 10
494.0802792546
 20
-129.0707822195
 30
0.0
 11
381.9613103038
 21
-64.3458791525
 31
0.0
  0
LINE
  5
BF
330
1F
100
AcDbEntity
  8
0
  6
Continuous
 62
     7
370
    25
100
AcDbLine
 10
633.6913244062
 20
-209.6665230569
 30
0.0
 11
584.0875939118
 21
-181.0308989689
 31
0.0
  0
LINE
  5
C0
330
1F
100
AcDbEntity
  8
0
  6
Continuous
 62
     7
370
    25
100
AcDbLine
 10
319.466389514
 20
-172.6019869501
 30
0.0
 11
571.1964036164
 21
-317.9226308545
 31
0.0
  0
LINE
  5
C1
330
1F
100
AcDbEntity
  8
0
  6
Continuous
 62
     7
370
    25
100
AcDbLine
 10
537.1108621245
 20
-208.1499889836
 30
0.0
 11
620.6993948085
 21
-159.8953561939
 31
0.0
  0
LINE
  5
C2
330
1F
100
AcDbEntity
  8
0
  6
Continuous
 62
     7
370
    25
100
AcDbLine
 10
575.7030518399
 20
-81.9509585796
 30
0.0
 11
492.1029483556
 21
-130.2122710502
 31
0.0
  0
SPLINE
  5
C3
330
1F
100
AcDbEntity
  8
0
  6
Continuous
 62
     7
370
    25
100
AcDbSpline
210
0.0
220
0.0
230
1.0
 70
     8
 71
     3
 72
    29
 73
    25
 74
     0
 42
0.000000001
 43
0.00000001
 40
0.0
 40
0.0
 40
0.0
 40
0.0
 40
0.0591467758455405
 40
0.089598501131748
 40
0.1202918321548768
 40
0.1793930623064074
 40
0.2399568601241996
 40
0.3045644349063905
 40
0.3705147255208772
 40
0.408599030757807
 40
0.4469323257609885
 40
0.4861131527379293
 40
0.525637722212025
 40
0.5772010987085698
 40
0.6300751656328853
 40
0.6817159915639083
 40
0.7351507834904452
 40
0.7641797385985135
 40
0.7934393310801877
 40
0.8533493525365874
 40
0.8917880960444913
 40
0.9305093212572482
 40
0.9700561439773822
 40
1.0
 40
1.0
 40
1.0
 40
1.0
 10
488.9532256308747
 20
-147.2523189930236
 30
0.0
 10
488.970645374094
 20
-149.1012785131213
 30
0.0
 10
488.9970336743897
 20
-151.9021750841646
 30
0.0
 10
489.1636957705544
 20
-156.0230274277623
 30
0.0
 10
489.3917469013264
 20
-160.2512424010391
 30
0.0
 10
489.805573198372
 20
-165.7236897727403
 30
0.0
 10
490.5316831926631
 20
-172.5113397061188
 30
0.0
 10
491.5538631340861
 20
-179.478513312683
 30
0.0
 10
492.7539419962948
 20
-185.4300201167885
 30
0.0
 10
494.0227793081524
 20
-190.2411267288013
 30
0.0
 10
495.2334042784478
 20
-193.9960627007982
 30
0.0
 10
496.6775718749568
 20
-197.6082453088894
 30
0.0
 10
498.5764383817433
 20
-201.3663559041942
 30
0.0
 10
501.1112647680481
 20
-205.1089788663917
 30
0.0
 10
504.4831440911106
 20
-208.4925651791279
 30
0.0
 10
508.5276030123956
 20
-211.0564399399245
 30
0.0
 10
512.398396820428
 20
-212.4106635670215
 30
0.0
 10
515.7853005926356
 20
-213.0099554912904
 30
0.0
 10
519.4469159237843
 20
-213.2725448678492
 30
0.0
 10
523.4625121221063
 20
-212.9805892233013
 30
0.0
 10
527.7038908135581
 20
-212.090488466313
 30
0.0
 10
531.2212813168478
 20
-210.9700736758681
 30
0.0
 10
534.3842219882235
 20
-209.6600181994303
 30
0.0
 10
536.2780503405986
 20
-208.583810714227
 30
0.0
 10
537.0941097681515
 20
-208.1200679134596
 30
0.0
  0
SPLINE
  5
C4
330
1F
100
AcDbEntity
  8
0
  6
Continuous
 62
     7
370
    25
100
AcDbSpline
210
0.0
220
0.0
230
1.0
 70
     8
 71
     3
 72
    16
 73
    12
 74
     0
 42
0.000000001
 43
0.00000001
 40
0.0
 40
0.0
 40
0.0
 40
0.0
 40
0.1111961275306557
 40
0.2299588199066352
 40
0.3496857098073498
 40
0.4728200172169664
 40
0.5973227942549636
 40
0.6956494389720429
 40
0.7948277876432349
 40
0.8968807125954322
 40
1.0
 40
1.0
 40
1.0
 40
1.0
 10
492.1704920772167
 20
-130.3283145957257
 30
0.0
 10
491.9041987970746
 20
-130.4518498182887
 30
0.0
 10
491.3534917732739
 20
-130.7073264668767
 30
0.0
 10
490.7534654541036
 20
-131.7224666664378
 30
0.0
 10
490.208500081655
 20
-133.063085594034
 30
0.0
 10
489.768405908243
 20
-134.8512152674629
 30
0.0
 10
489.4445540598056
 20
-136.9274305014234
 30
0.0
 10
489.217711893514
 20
-139.1927154043084
 30
0.0
 10
489.0674196735501
 20
-141.5724686544064
 30
0.0
 10
488.9713038020046
 20
-144.2395264739569
 30
0.0
 10
488.9592725317005
 20
-146.2445811283582
 30
0.0
 10
488.9532256308747
 20
-147.2523189930236
 30
0.0
  0
LWPOLYLINE
  5
C5
330
1F
100
AcDbEntity
  8
0
  6
Continuous
 62
     7
370
    25
100
AcDbPolyline
 90
       91
 70
   128
 43
0.0
 10
394.9080237331
 20
-92.9611795568
 10
394.8003689468
 20
-89.4633893605
 10
394.4779290714
 20
-86.1069356169
 10
393.9422750014
 20
-82.9081706312
 10
393.1960163897
 20
-79.8826784651
 10
392.2427889332
 20
-77.0451990121
 10
391.0872366602
 20
-74.4095561869
 10
389.7349893053
 20
-71.9885905765
 10
388.1926348817
 20
-69.7940968819
 10
386.467687585
 20
-67.8367664559
 10
384.5685511851
 20
-66.1261352155
 10
382.5044780837
 20
-64.6705371841
 10
380.2855242374
 20
-63.4770638891
 10
377.9225001663
 20
-62.5515298125
 10
375.4269182861
 20
-61.8984440631
 10
372.810936821
 20
-61.5209884091
 10
370.0873005696
 20
-61.4210017765
 10
367.269278814
 20
-61.5989712901
 10
364.3706006729
 20
-62.0540299004
 10
361.4053882149
 20
-62.7839606075
 10
358.388087657
 20
-63.7852072624
 10
355.3333989841
 20
-65.0528918921
 10
352.2562043326
 20
-66.5808384645
 10
349.1714954853
 20
-68.3616029774
 10
346.0943008337
 20
-70.3865097251
 10
343.0396121608
 20
-72.6456935656
 10
340.0223116029
 20
-75.1281479822
 10
337.0570991449
 20
-77.8217787066
 10
334.1584210038
 20
-80.7134626405
 10
331.3403992482
 20
-83.7891117907
 10
328.6167629968
 20
-87.0337419035
 10
326.0007815317
 20
-90.4315454673
 10
323.5051996515
 20
-93.9659687245
 10
321.1421755804
 20
-97.6197923204
 10
318.9232217341
 20
-101.3752151937
 10
316.8591486327
 20
-105.2139413016
 10
314.9600122328
 20
-109.1172687565
 10
313.2350649361
 20
-113.0661809393
 10
311.6927105125
 20
-117.0414391468
 10
310.3404631576
 20
-121.0236763205
 10
309.1849108846
 20
-124.9934914014
 10
308.2316834281
 20
-128.9315438494
 10
307.4854248164
 20
-132.8186478687
 10
306.9497707464
 20
-136.6358658794
 10
306.627330871
 20
-140.3646007789
 10
306.5196760847
 20
-143.9866865457
 10
306.627330871
 20
-147.4844767421
 10
306.9497707464
 20
-150.8409304857
 10
307.4854248164
 20
-154.0396954713
 10
308.2316834281
 20
-157.0651876375
 10
309.1849108846
 20
-159.9026670905
 10
310.3404631576
 20
-162.5383099156
 10
311.6927105125
 20
-164.9592755261
 10
313.2350649361
 20
-167.1537692206
 10
314.9600122328
 20
-169.1110996467
 10
316.8591486327
 20
-170.8217308871
 10
318.9232217341
 20
-172.2773289184
 10
321.1421755804
 20
-173.4708022134
 10
323.5051996515
 20
-174.3963362901
 10
326.0007815317
 20
-175.0494220395
 10
328.6167629968
 20
-175.4268776935
 10
331.3403992482
 20
-175.5268643261
 10
334.1584210038
 20
-175.3488948125
 10
337.0570991449
 20
-174.8938362022
 10
340.0223116029
 20
-174.163905495
 10
343.0396121608
 20
-173.1626588401
 10
346.0943008337
 20
-171.8949742104
 10
349.1714954853
 20
-170.3670276381
 10
352.2562043326
 20
-168.5862631252
 10
355.3333989841
 20
-166.5613563774
 10
358.388087657
 20
-164.3021725369
 10
361.4053882149
 20
-161.8197181203
 10
364.3706006729
 20
-159.126087396
 10
367.269278814
 20
-156.234403462
 10
370.0873005696
 20
-153.1587543119
 10
372.810936821
 20
-149.914124199
 10
375.4269182861
 20
-146.5163206353
 10
377.9225001663
 20
-142.981897378
 10
380.2855242374
 20
-139.3280737821
 10
382.5044780837
 20
-135.5726509088
 10
384.5685511851
 20
-131.7339248009
 10
386.467687585
 20
-127.830597346
 10
388.1926348817
 20
-123.8816851633
 10
389.7349893053
 20
-119.9064269558
 10
391.0872366602
 20
-115.924189782
 10
392.2427889332
 20
-111.9543747011
 10
393.1960163897
 20
-108.0163222532
 10
393.9422750014
 20
-104.1292182339
 10
394.4779290714
 20
-100.3120002232
 10
394.8003689468
 20
-96.5832653236
 10
394.9080237331
 20
-92.9611795568
  0
LWPOLYLINE
  5
C6
330
1F
100
AcDbEntity
  8
0
  6
Continuous
 62
     7
370
    25
100
AcDbPolyline
 90
       13
 70
   128
 43
0.0
 10
646.6380378355
 20
-238.2818234613
 10
646.5303830492
 20
-234.7840332649
 10
646.2079431738
 20
-231.4275795213
 10
645.6722891038
 20
-228.2288145357
 10
644.9260304921
 20
-225.2033223695
 10
643.9728030356
 20
-222.3658429165
 10
642.8172507626
 20
-219.7302000913
 10
641.4650034077
 20
-217.3092344809
 10
639.9226489841
 20
-215.1147407864
 10
638.1977016874
 20
-213.1574103603
 10
636.2985652875
 20
-211.4467791199
 10
634.2344921861
 20
-209.9911810886
 10
633.6913244062
 20
-209.6665230569
  0
LWPOLYLINE
  5
C7
330
1F
100
AcDbEntity
  8
0
  6
Continuous
 62
     7
370
    25
100
AcDbPolyline
 90
       35
 70
   128
 43
0.0
 10
571.1964036164
 20
-317.9226308545
 10
572.8721896828
 20
-318.7914461178
 10
575.2352137539
 20
-319.7169801945
 10
577.7307956341
 20
-320.3700659439
 10
580.3467770992
 20
-320.7475215979
 10
583.0704133506
 20
-320.8475082305
 10
585.8884351062
 20
-320.6695387169
 10
588.7871132473
 20
-320.2144801066
 10
591.7523257053
 20
-319.4845493995
 10
594.7696262633
 20
-318.4833027445
 10
597.8243149361
 20
-317.2156181149
 10
600.9015095877
 20
-315.6876715425
 10
603.986218435
 20
-313.9069070296
 10
607.0634130865
 20
-311.8820002818
 10
610.1181017594
 20
-309.6228164414
 10
613.1354023173
 20
-307.1403620248
 10
616.1006147753
 20
-304.4467313004
 10
618.9992929164
 20
-301.5550473665
 10
621.817314672
 20
-298.4793982163
 10
624.5409509234
 20
-295.2347681035
 10
627.1569323885
 20
-291.8369645397
 10
629.6525142687
 20
-288.3025412825
 10
632.0155383398
 20
-284.6487176866
 10
634.2344921861
 20
-280.8932948133
 10
636.2985652875
 20
-277.0545687053
 10
638.1977016874
 20
-273.1512412505
 10
639.9226489841
 20
-269.2023290677
 10
641.4650034077
 20
-265.2270708602
 10
642.8172507626
 20
-261.2448336864
 10
643.9728030356
 20
-257.2750186056
 10
644.9260304921
 20
-253.3369661576
 10
645.6722891038
 20
-249.4498621383
 10
646.2079431738
 20
-245.6326441276
 10
646.5303830492
 20
-241.9039092281
 10
646.6380378355
 20
-238.2818234613
  0
LWPOLYLINE
  5
C8
330
1F
100
AcDbEntity
  8
0
  6
Continuous
 62
     7
370
    25
100
AcDbPolyline
 90
       82
 70
   128
 43
0.0
 10
386.8470064275
 20
-97.6147057942
 10
386.7383519001
 20
-94.4440412167
 10
386.4130417789
 20
-91.4178952362
 10
385.8730325172
 20
-88.5544674507
 10
385.1215717944
 20
-85.8709788517
 10
384.1631789835
 20
-83.3835682555
 10
383.0036179719
 20
-81.107195242
 10
381.6498624957
 20
-79.0555501865
 10
380.1100541998
 20
-77.2409719237
 10
378.3934536724
 20
-75.6743735407
 10
376.510384751
 20
-74.3651767446
 10
374.4721724338
 20
-73.321255199
 10
372.2910747693
 20
-72.5488871709
 10
369.9802091358
 20
-72.0527177724
 10
367.5534733508
 20
-71.8357310247
 10
365.0254620891
 20
-71.8992319117
 10
362.4113791077
 20
-72.2428385315
 10
359.7269458093
 20
-72.8644843935
 10
356.9883066917
 20
-73.7604308463
 10
354.2119322527
 20
-74.9252895626
 10
351.4145199349
 20
-76.352054945
 10
348.6128937051
 20
-78.0321462585
 10
345.8239028732
 20
-79.9554592364
 10
343.064320758
 20
-82.110426848
 10
340.3507438113
 20
-84.4840888647
 10
337.699491804
 20
-87.0621698036
 10
335.1265096777
 20
-89.8291647828
 10
332.6472716496
 20
-92.7684327689
 10
330.2766881489
 20
-95.8622966582
 10
328.0290161438
 20
-99.0921495894
 10
325.9177733982
 20
-102.4385668469
 10
323.9556571743
 20
-105.8814226835
 10
322.15446787
 20
-109.4000113592
 10
320.5250380497
 20
-112.9731716676
 10
319.0771672961
 20
-116.5794142022
 10
317.8195632742
 20
-120.1970505961
 10
316.7597893626
 20
-123.8043239584
 10
315.9042191664
 20
-127.3795397225
 10
315.2579981853
 20
-130.9011961202
 10
314.8250128683
 20
-134.3481134956
 10
314.6078672401
 20
-137.6995616819
 10
314.6078672401
 20
-140.9353846755
 10
314.8250128683
 20
-144.0361218561
 10
315.2579981853
 20
-146.9831250255
 10
315.9042191664
 20
-149.7586705599
 10
316.7597893626
 20
-152.3460660017
 10
317.8195632742
 20
-154.7297504505
 10
319.0771672961
 20
-156.8953881474
 10
320.5250380497
 20
-158.8299546925
 10
322.15446787
 20
-160.521815375
 10
323.9556571743
 20
-161.9607951456
 10
325.9177733982
 20
-163.1382398108
 10
328.0290161438
 20
-164.0470680797
 10
330.2766881489
 20
-164.6818141522
 10
332.6472716496
 20
-165.0386605908
 10
335.1265096777
 20
-165.1154612789
 10
337.699491804
 20
-164.9117543282
 10
340.3507438113
 20
-164.4287648562
 10
343.064320758
 20
-163.6693976186
 10
345.8239028732
 20
-162.6382195391
 10
348.6128937051
 20
-161.3414322442
 10
351.4145199349
 20
-159.7868347651
 10
354.2119322527
 20
-157.983776634
 10
356.9883066917
 20
-155.9431016548
 10
359.7269458093
 20
-153.6770826867
 10
362.4113791077
 20
-151.1993478346
 10
365.0254620891
 20
-148.5247984874
 10
367.5534733508
 20
-145.6695196995
 10
369.9802091358
 20
-142.6506834536
 10
372.2910747693
 20
-139.486445386
 10
374.4721724338
 20
-136.1958355968
 10
376.510384751
 20
-132.7986442005
 10
378.3934536724
 20
-129.3153023058
 10
380.1100541998
 20
-125.7667591407
 10
381.6498624957
 20
-122.1743560615
 10
383.0036179719
 20
-118.5596982028
 10
384.1631789835
 20
-114.9445245425
 10
385.1215717944
 20
-111.3505771602
 10
385.8730325172
 20
-107.7994704784
 10
386.4130417789
 20
-104.3125612705
 10
386.7383519001
 20
-100.9108202188
 10
386.8470064275
 20
-97.6147057942
  0
LWPOLYLINE
  5
C9
330
1F
100
AcDbEntity
  8
0
  6
Continuous
 62
     7
370
    25
100
AcDbPolyline
 90
       70
 70
   128
 43
0.0
 10
624.2227528719
 20
-135.9450666443
 10
624.1149415774
 20
-133.150353941
 10
623.7924010523
 20
-130.2543228362
 10
623.2578039689
 20
-127.2809707558
 10
622.515580167
 20
-124.2549358315
 10
621.5718799469
 20
-121.2012927417
 10
620.4345231057
 20
-118.1453449348
 10
619.1129341404
 20
-115.1124149567
 10
617.6180641535
 20
-112.1276346204
 10
615.9623001083
 20
-109.2157367557
 10
614.1593621873
 20
-106.4008502656
 10
612.2241901019
 20
-103.7063001858
 10
610.1728192974
 20
-101.154414407
 10
608.0222480783
 20
-98.7663386584
 10
605.7902967552
 20
-96.5618612879
 10
603.4954599795
 20
-94.5592492891
 10
601.1567534915
 20
-92.7750969357
 10
598.7935565498
 20
-91.2241882761
 10
596.4254513484
 20
-89.9193746279
 10
594.0720607529
 20
-88.8714680878
 10
591.7528856988
 20
-88.0891519395
 10
589.4871436012
 20
-87.578908701
 10
587.2936091125
 20
-87.3449664085
 10
585.1904585504
 20
-87.3892635814
 10
583.1951192827
 20
-87.7114331594
 10
581.3241253192
 20
-88.308805544
 10
579.5929803049
 20
-89.1764307195
 10
578.0160290527
 20
-90.3071192703
 10
576.6063386773
 20
-91.691501955
 10
575.3755903171
 20
-93.3181073428
 10
574.3339823406
 20
-95.1734568691
 10
573.4901458396
 20
-97.2421765234
 10
572.8510731091
 20
-99.5071242432
 10
572.422059707
 20
-101.9495319583
 10
572.2066605734
 20
-104.5491611092
 10
572.2066605734
 20
-107.2844703501
 10
572.422059707
 20
-110.132794047
 10
572.8510731091
 20
-113.0705300929
 10
573.4901458396
 20
-116.0733354816
 10
574.3339823406
 20
-119.116328022
 10
575.3755903171
 20
-122.1742925195
 10
576.6063386773
 20
-125.2218897173
 10
578.0160290527
 20
-128.2338662652
 10
579.5929803049
 20
-131.1852639769
 10
581.3241253192
 20
-134.0516266415
 10
583.1951192827
 20
-136.8092026752
 10
585.1904585504
 20
-139.4351419345
 10
587.2936091125
 20
-141.9076850598
 10
589.4871436012
 20
-144.20634378
 10
591.7528856988
 20
-146.312070685
 10
594.0720607529
 20
-148.2074170584
 10
596.4254513484
 20
-149.8766774635
 10
598.7935565498
 20
-151.3060198826
 10
601.1567534915
 20
-152.4836003344
 10
603.4954599795
 20
-153.3996610164
 10
605.7902967552
 20
-154.0466111613
 10
608.0222480783
 20
-154.4190899363
 10
610.1728192974
 20
-154.5140108652
 10
612.2241901019
 20
-154.3305874032
 10
614.1593621873
 20
-153.8703394548
 10
615.9623001083
 20
-153.1370807795
 10
617.6180641535
 20
-152.1368873896
 10
619.1129341404
 20
-150.8780472026
 10
620.4345231057
 20
-149.3709913646
 10
621.5718799469
 20
-147.628207815
 10
622.515580167
 20
-145.6641378072
 10
623.2578039689
 20
-143.4950562438
 10
623.7924010523
 20
-141.1389368177
 10
624.1149415774
 20
-138.6153030765
 10
624.2227528719
 20
-135.9450666443
  0
LWPOLYLINE
  5
CA
330
1F
100
AcDbEntity
  8
0
  6
Continuous
 62
     7
370
    25
100
AcDbPolyline
 90
       77
 70
   128
 43
0.0
 10
630.0210284776
 20
-139.2923399028
 10
629.9123477106
 20
-136.1952765705
 10
629.5870478093
 20
-132.9938891786
 10
629.047350902
 20
-129.7100464489
 10
628.2969436658
 20
-126.3661803572
 10
627.340952143
 20
-122.9851328994
 10
626.1859067251
 20
-119.5900000581
 10
624.8396975435
 20
-116.2039740331
 10
623.3115205718
 20
-112.8501848156
 10
621.6118148085
 20
-109.5515421866
 10
619.7521909673
 20
-106.3305792201
 10
617.7453521647
 20
-103.2092983592
 10
615.6050071447
 20
-100.2090211171
 10
613.3457766339
 20
-97.3502424296
 10
610.9830934677
 20
-94.6524906538
 10
608.5330971677
 20
-92.1341941699
 10
606.012523693
 20
-89.8125554964
 10
603.4385911162
 20
-87.7034337796
 10
600.8288820068
 20
-85.8212364593
 10
598.2012233242
 20
-84.1788208519
 10
595.5735646416
 20
-82.7874063212
 10
592.9638555322
 20
-81.6564976395
 10
590.3899229554
 20
-80.7938200598
 10
587.8693494807
 20
-80.2052665445
 10
585.4193531807
 20
-79.8948575112
 10
583.0566700145
 20
-79.8647133681
 10
580.7974395037
 20
-80.1150400304
 10
578.6570944837
 20
-80.6441275131
 10
576.6502556811
 20
-81.4483616123
 10
574.7906318399
 20
-82.5222485935
 10
573.0909260766
 20
-83.8584527198
 10
571.5627491049
 20
-85.4478463621
 10
570.2165399233
 20
-87.2795723501
 10
569.0614945054
 20
-89.3411181382
 10
568.1055029826
 20
-91.618401278
 10
567.3550957464
 20
-94.0958656167
 10
566.8153988391
 20
-96.7565875607
 10
566.4900989378
 20
-99.5823916812
 10
566.3814181708
 20
-102.5539748707
 10
566.4900989378
 20
-105.6510382029
 10
566.8153988391
 20
-108.8524255949
 10
567.3550957464
 20
-112.1362683246
 10
568.1055029826
 20
-115.4801344163
 10
569.0614945054
 20
-118.8611818741
 10
570.2165399233
 20
-122.2563147154
 10
571.5627491049
 20
-125.6423407404
 10
573.0909260766
 20
-128.9961299579
 10
574.7906318399
 20
-132.2947725869
 10
576.6502556811
 20
-135.5157355533
 10
578.6570944837
 20
-138.6370164142
 10
580.7974395037
 20
-141.6372936564
 10
583.0566700145
 20
-144.4960723439
 10
585.4193531807
 20
-147.1938241197
 10
587.8693494807
 20
-149.7121206036
 10
590.3899229554
 20
-152.0337592771
 10
592.9638555322
 20
-154.1428809939
 10
595.5735646416
 20
-156.0250783142
 10
598.2012233242
 20
-157.6674939216
 10
600.8288820068
 20
-159.0589084522
 10
603.4385911162
 20
-160.1898171339
 10
606.012523693
 20
-161.0524947137
 10
608.5330971677
 20
-161.6410482289
 10
610.9830934677
 20
-161.9514572623
 10
613.3457766339
 20
-161.9816014054
 10
615.6050071447
 20
-161.7312747431
 10
617.7453521647
 20
-161.2021872603
 10
619.7521909673
 20
-160.3979531612
 10
621.6118148085
 20
-159.32406618
 10
623.3115205718
 20
-157.9878620537
 10
624.8396975435
 20
-156.3984684114
 10
626.1859067251
 20
-154.5667424233
 10
627.340952143
 20
-152.5051966353
 10
628.2969436658
 20
-150.2279134955
 10
629.047350902
 20
-147.7504491568
 10
629.5870478093
 20
-145.0897272128
 10
629.9123477106
 20
-142.2639230923
 10
630.0210284776
 20
-139.2923399028
  0
ENDSEC
  0
SECTION
  2
OBJECTS
  0
DICTIONARY
  5
C
330
0
100
AcDbDictionary
281
     1
  3
ACAD_GROUP
350
D
  3
ACAD_LAYOUT
350
1A
  3
ACAD_MLINESTYLE
350
17
  3
ACAD_PLOTSETTINGS
350
19
  3
ACAD_PLOTSTYLENAME
350
E
  3
ACAD_SCALELIST
350
47
  0
DICTIONARY
  5
D
102
{ACAD_REACTORS
330
C
102
}
330
C
100
AcDbDictionary
281
     1
  0
DICTIONARY
  5
1A
102
{ACAD_REACTORS
330
C
102
}
330
C
100
AcDbDictionary
281
     1
  3
Layout1
350
1E
  3
Layout2
350
26
  3
Model
350
22
  0
DICTIONARY
  5
17
102
{ACAD_REACTORS
330
C
102
}
330
C
100
AcDbDictionary
281
     1
  3
Standard
350
18
  0
DICTIONARY
  5
19
102
{ACAD_REACTORS
330
C
102
}
330
C
100
AcDbDictionary
281
     1
  0
ACDBDICTIONARYWDFLT
  5
E
102
{ACAD_REACTORS
330
C
102
}
330
C
100
AcDbDictionary
281
     1
  3
Normal
350
F
100
AcDbDictionaryWithDefault
340
F
  0
DICTIONARY
  5
47
102
{ACAD_REACTORS
330
C
102
}
330
C
100
AcDbDictionary
281
     1
  3
A0
350
48
  3
A1
350
49
  3
A2
350
4A
  3
A3
350
4B
  3
A4
350
4C
  3
A5
350
4D
  3
A6
350
4E
  3
A7
350
4F
  3
A8
350
50
  3
A9
350
51
  3
B0
350
52
  3
B1
350
53
  3
B2
350
54
  3
B3
350
55
  3
B4
350
56
  3
B5
350
57
  3
B6
350
58
  3
B7
350
59
  3
B8
350
5A
  3
B9
350
5B
  3
C0
350
5C
  3
C1
350
5D
  3
C2
350
5E
  3
C3
350
5F
  3
C4
350
60
  3
C5
350
61
  3
C6
350
62
  3
C7
350
63
  3
C8
350
64
  3
C9
350
65
  3
D0
350
66
  3
D1
350
67
  3
D2
350
68
  0
LAYOUT
  5
1E
102
{ACAD_REACTORS
330
1A
102
}
330
1A
100
AcDbPlotSettings
  1

  2
none_device
  4

  6

 40
0.0
 41
0.0
 42
0.0
 43
0.0
 44
0.0
 45
0.0
 46
0.0
 47
0.0
 48
0.0
 49
0.0
140
0.0
141
0.0
142
1.0
143
1.0
 70
   688
 72
     1
 73
     0
 74
     5
  7

 75
    16
147
1.0
148
0.0
149
0.0
100
AcDbLayout
  1
Layout1
 70
     1
 71
     1
 10
0.0
 20
0.0
 11
420.0
 21
297.0
 12
0.0
 22
0.0
 32
0.0
 14
1.0000000000E+20
 24
1.0000000000E+20
 34
1.0000000000E+20
 15
-1.0000000000E+20
 25
-1.0000000000E+20
 35
-1.0000000000E+20
146
0.0
 13
0.0
 23
0.0
 33
0.0
 16
1.0
 26
0.0
 36
0.0
 17
0.0
 27
1.0
 37
0.0
 76
     0
330
1B
  0
LAYOUT
  5
26
102
{ACAD_REACTORS
330
1A
102
}
330
1A
100
AcDbPlotSettings
  1

  2
none_device
  4

  6

 40
0.0
 41
0.0
 42
0.0
 43
0.0
 44
0.0
 45
0.0
 46
0.0
 47
0.0
 48
0.0
 49
0.0
140
0.0
141
0.0
142
1.0
143
1.0
 70
   688
 72
     1
 73
     0
 74
     5
  7

 75
    16
147
1.0
148
0.0
149
0.0
100
AcDbLayout
  1
Layout2
 70
     1
 71
     2
 10
0.0
 20
0.0
 11
0.0
 21
0.0
 12
0.0
 22
0.0
 32
0.0
 14
0.0
 24
0.0
 34
0.0
 15
0.0
 25
0.0
 35
0.0
146
0.0
 13
0.0
 23
0.0
 33
0.0
 16
1.0
 26
0.0
 36
0.0
 17
0.0
 27
1.0
 37
0.0
 76
     0
330
23
  0
LAYOUT
  5
22
102
{ACAD_REACTORS
330
1A
102
}
330
1A
100
AcDbPlotSettings
  1

  2
none_device
  4
Letter_(8.50_x_11.00_Inches)
  6

 40
6.35
 41
6.35
 42
6.35000508
 43
6.35000508
 44
215.9
 45
279.4
 46
0.0
 47
0.0
 48
0.0
 49
0.0
140
0.0
141
0.0
142
1.0
143
1.0
 70
  1712
 72
     1
 73
     0
 74
     0
  7

 75
     0
147
1.0
148
0.0
149
0.0
100
AcDbLayout
  1
Model
 70
     1
 71
     0
 10
0.0
 20
0.0
 11
279.4
 21
215.9
 12
0.0
 22
0.0
 32
0.0
 14
0.0
 24
0.0
 34
0.0
 15
279.4
 25
215.9
 35
0.0
146
0.0
 13
0.0
 23
0.0
 33
0.0
 16
1.0
 26
0.0
 36
0.0
 17
0.0
 27
1.0
 37
0.0
 76
     0
330
1F
331
29
  0
MLINESTYLE
  5
18
102
{ACAD_REACTORS
330
17
102
}
330
17
100
AcDbMlineStyle
  2
Standard
 70
     0
  3

 62
   256
 51
90.0
 52
90.0
 71
     2
 49
0.5
 62
   256
  6
BYLAYER
 49
-0.5
 62
   256
  6
BYLAYER
  0
ACDBPLACEHOLDER
  5
F
102
{ACAD_REACTORS
330
E
102
}
330
E
  0
SCALE
  5
48
102
{ACAD_REACTORS
330
47
102
}
330
47
100
AcDbScale
 70
     0
300
1:1
140
1.0
141
1.0
290
     1
  0
SCALE
  5
49
102
{ACAD_REACTORS
330
47
102
}
330
47
100
AcDbScale
 70
     0
300
1:2
140
1.0
141
2.0
290
     0
  0
SCALE
  5
4A
102
{ACAD_REACTORS
330
47
102
}
330
47
100
AcDbScale
 70
     0
300
1:4
140
1.0
141
4.0
290
     0
  0
SCALE
  5
4B
102
{ACAD_REACTORS
330
47
102
}
330
47
100
AcDbScale
 70
     0
300
1:5
140
1.0
141
5.0
290
     0
  0
SCALE
  5
4C
102
{ACAD_REACTORS
330
47
102
}
330
47
100
AcDbScale
 70
     0
300
1:8
140
1.0
141
8.0
290
     0
  0
SCALE
  5
4D
102
{ACAD_REACTORS
330
47
102
}
330
47
100
AcDbScale
 70
     0
300
1:10
140
1.0
141
10.0
290
     0
  0
SCALE
  5
4E
102
{ACAD_REACTORS
330
47
102
}
330
47
100
AcDbScale
 70
     0
300
1:16
140
1.0
141
16.0
290
     0
  0
SCALE
  5
4F
102
{ACAD_REACTORS
330
47
102
}
330
47
100
AcDbScale
 70
     0
300
1:20
140
1.0
141
20.0
290
     0
  0
SCALE
  5
50
102
{ACAD_REACTORS
330
47
102
}
330
47
100
AcDbScale
 70
     0
300
1:30
140
1.0
141
30.0
290
     0
  0
SCALE
  5
51
102
{ACAD_REACTORS
330
47
102
}
330
47
100
AcDbScale
 70
     0
300
1:40
140
1.0
141
40.0
290
     0
  0
SCALE
  5
52
102
{ACAD_REACTORS
330
47
102
}
330
47
100
AcDbScale
 70
     0
300
1:50
140
1.0
141
50.0
290
     0
  0
SCALE
  5
53
102
{ACAD_REACTORS
330
47
102
}
330
47
100
AcDbScale
 70
     0
300
1:100
140
1.0
141
100.0
290
     0
  0
SCALE
  5
54
102
{ACAD_REACTORS
330
47
102
}
330
47
100
AcDbScale
 70
     0
300
2:1
140
2.0
141
1.0
290
     0
  0
SCALE
  5
55
102
{ACAD_REACTORS
330
47
102
}
330
47
100
AcDbScale
 70
     0
300
4:1
140
4.0
141
1.0
290
     0
  0
SCALE
  5
56
102
{ACAD_REACTORS
330
47
102
}
330
47
100
AcDbScale
 70
     0
300
8:1
140
8.0
141
1.0
290
     0
  0
SCALE
  5
57
102
{ACAD_REACTORS
330
47
102
}
330
47
100
AcDbScale
 70
     0
300
10:1
140
10.0
141
1.0
290
     0
  0
SCALE
  5
58
102
{ACAD_REACTORS
330
47
102
}
330
47
100
AcDbScale
 70
     0
300
100:1
140
100.0
141
1.0
290
     0
  0
SCALE
  5
59
102
{ACAD_REACTORS
330
47
102
}
330
47
100
AcDbScale
 70
     0
300
1/128" = 1'-0"
140
0.0078125
141
12.0
290
     0
  0
SCALE
  5
5A
102
{ACAD_REACTORS
330
47
102
}
330
47
100
AcDbScale
 70
     0
300
1/64" = 1'-0"
140
0.015625
141
12.0
290
     0
  0
SCALE
  5
5B
102
{ACAD_REACTORS
330
47
102
}
330
47
100
AcDbScale
 70
     0
300
1/32" = 1'-0"
140
0.03125
141
12.0
290
     0
  0
SCALE
  5
5C
102
{ACAD_REACTORS
330
47
102
}
330
47
100
AcDbScale
 70
     0
300
1/16" = 1'-0"
140
0.0625
141
12.0
290
     0
  0
SCALE
  5
5D
102
{ACAD_REACTORS
330
47
102
}
330
47
100
AcDbScale
 70
     0
300
3/32" = 1'-0"
140
0.09375
141
12.0
290
     0
  0
SCALE
  5
5E
102
{ACAD_REACTORS
330
47
102
}
330
47
100
AcDbScale
 70
     0
300
1/8" = 1'-0"
140
0.125
141
12.0
290
     0
  0
SCALE
  5
5F
102
{ACAD_REACTORS
330
47
102
}
330
47
100
AcDbScale
 70
     0
300
3/16" = 1'-0"
140
0.1875
141
12.0
290
     0
  0
SCALE
  5
60
102
{ACAD_REACTORS
330
47
102
}
330
47
100
AcDbScale
 70
     0
300
1/4" = 1'-0"
140
0.25
141
12.0
290
     0
  0
SCALE
  5
61
102
{ACAD_REACTORS
330
47
102
}
330
47
100
AcDbScale
 70
     0
300
3/8" = 1'-0"
140
0.375
141
12.0
290
     0
  0
SCALE
  5
62
102
{ACAD_REACTORS
330
47
102
}
330
47
100
AcDbScale
 70
     0
300
1/2" = 1'-0"
140
0.5
141
12.0
290
     0
  0
SCALE
  5
63
102
{ACAD_REACTORS
330
47
102
}
330
47
100
AcDbScale
 70
     0
300
3/4" = 1'-0"
140
0.75
141
12.0
290
     0
  0
SCALE
  5
64
102
{ACAD_REACTORS
330
47
102
}
330
47
100
AcDbScale
 70
     0
300
1" = 1'-0"
140
1.0
141
12.0
290
     0
  0
SCALE
  5
65
102
{ACAD_REACTORS
330
47
102
}
330
47
100
AcDbScale
 70
     0
300
1-1/2" = 1'-0"
140
1.5
141
12.0
290
     0
  0
SCALE
  5
66
102
{ACAD_REACTORS
330
47
102
}
330
47
100
AcDbScale
 70
     0
300
3" = 1'-0"
140
3.0
141
12.0
290
     0
  0
SCALE
  5
67
102
{ACAD_REACTORS
330
47
102
}
330
47
100
AcDbScale
 70
     0
300
6" = 1'-0"
140
6.0
141
12.0
290
     0
  0
SCALE
  5
68
102
{ACAD_REACTORS
330
47
102
}
330
47
100
AcDbScale
 70
     0
300
1'-0" = 1'-0"
140
12.0
141
12.0
290
     0
  0
ENDSEC
  0
EOF
