  0
SECTION
  2
HEADER
  9
$ACADVER
  1
AC1015
  9
$ACADMAINTVER
 70
     6
  9
$DWGCODEPAGE
  3
ANSI_1254
  9
$INSBASE
 10
0.0
 20
0.0
 30
0.0
  9
$EXTMIN
 10
0.0
 20
0.0
 30
0.0
  9
$EXTMAX
 10
279.4
 20
215.9
 30
0.0
  9
$LIMMIN
 10
0.0
 20
0.0
  9
$LIMMAX
 10
279.4
 20
215.9
  9
$ORTHOMODE
 70
     0
  9
$REGENMODE
 70
     1
  9
$FILLMODE
 70
     1
  9
$QTEXTMODE
 70
     0
  9
$MIRRTEXT
 70
     1
  9
$LTSCALE
 40
1.0
  9
$ATTMODE
 70
     1
  9
$TEXTSIZE
 40
3.5
  9
$TRACEWID
 40
1.0
  9
$TEXTSTYLE
  7
Standard
  9
$CLAYER
  8
0
  9
$CELTYPE
  6
ByLayer
  9
$CECOLOR
 62
   256
  9
$CELTSCALE
 40
1.0
  9
$DISPSILH
 70
     0
  9
$DIMSCALE
 40
1.0
  9
$DIMASZ
 40
3.5
  9
$DIMEXO
 40
1.0
  9
$DIMDLI
 40
3.75
  9
$DIMRND
 40
0.0
  9
$DIMDLE
 40
0.0
  9
$DIMEXE
 40
1.0
  9
$DIMTP
 40
0.0
  9
$DIMTM
 40
0.0
  9
$DIMTXT
 40
3.5
  9
$DIMCEN
 40
2.5
  9
$DIMTSZ
 40
0.0
  9
$DIMTOL
 70
     0
  9
$DIMLIM
 70
     0
  9
$DIMTIH
 70
     1
  9
$DIMTOH
 70
     1
  9
$DIMSE1
 70
     0
  9
$DIMSE2
 70
     0
  9
$DIMTAD
 70
     1
  9
$DIMZIN
 70
     0
  9
$DIMBLK
  1

  9
$DIMASO
 70
     1
  9
$DIMSHO
 70
     1
  9
$DIMPOST
  1

  9
$DIMAPOST
  1

  9
$DIMALT
 70
     0
  9
$DIMALTD
 70
     3
  9
$DIMALTF
 40
0.0393700787
  9
$DIMLFAC
 40
1.0
  9
$DIMTOFL
 70
     1
  9
$DIMTVP
 40
0.0
  9
$DIMTIX
 70
     0
  9
$DIMSOXD
 70
     0
  9
$DIMSAH
 70
     0
  9
$DIMBLK1
  1

  9
$DIMBLK2
  1

  9
$DIMSTYLE
  2
ISO-25
  9
$DIMCLRD
 70
     0
  9
$DIMCLRE
 70
     0
  9
$DIMCLRT
 70
     0
  9
$DIMTFAC
 40
1.0
  9
$DIMGAP
 40
1.524
  9
$DIMJUST
 70
     0
  9
$DIMSD1
 70
     0
  9
$DIMSD2
 70
     0
  9
$DIMTOLJ
 70
     0
  9
$DIMTZIN
 70
     0
  9
$DIMALTZ
 70
     0
  9
$DIMALTTZ
 70
     0
  9
$DIMUPT
 70
     0
  9
$DIMDEC
 70
     2
  9
$DIMTDEC
 70
     2
  9
$DIMALTU
 70
     2
  9
$DIMALTTD
 70
     3
  9
$DIMTXSTY
  7
Standard
  9
$DIMAUNIT
 70
     0
  9
$DIMADEC
 70
     2
  9
$DIMALTRND
 40
0.0
  9
$DIMAZIN
 70
     0
  9
$DIMDSEP
 70
    44
  9
$DIMATFIT
 70
     3
  9
$DIMFRAC
 70
     0
  9
$DIMLDRBLK
  1

  9
$DIMLUNIT
 70
     2
  9
$DIMLWD
 70
    -2
  9
$DIMLWE
 70
    -2
  9
$DIMTMOVE
 70
     0
  9
$LUNITS
 70
     2
  9
$LUPREC
 70
     2
  9
$SKETCHINC
 40
1.0
  9
$FILLETRAD
 40
10.0
  9
$AUNITS
 70
     0
  9
$AUPREC
 70
     2
  9
$MENU
  1
.
  9
$ELEVATION
 40
0.0
  9
$PELEVATION
 40
0.0
  9
$THICKNESS
 40
0.0
  9
$LIMCHECK
 70
     0
  9
$CHAMFERA
 40
0.0
  9
$CHAMFERB
 40
0.0
  9
$CHAMFERC
 40
0.0
  9
$CHAMFERD
 40
0.0
  9
$SKPOLY
 70
     0
  9
$TDCREATE
 40
2460640.395585081
  9
$TDUCREATE
 40
2460640.270585081
  9
$TDUPDATE
 40
2460640.395585382
  9
$TDUUPDATE
 40
2460640.270585382
  9
$TDINDWG
 40
0.0000000116
  9
$TDUSRTIMER
 40
0.0000000116
  9
$USRTIMER
 70
     1
  9
$ANGBASE
 50
0.0
  9
$ANGDIR
 70
     0
  9
$PDMODE
 70
     0
  9
$PDSIZE
 40
-1.0
  9
$PLINEWID
 40
0.0
  9
$SPLFRAME
 70
     0
  9
$SPLINETYPE
 70
     6
  9
$SPLINESEGS
 70
     8
  9
$HANDSEED
  5
CC
  9
$SURFTAB1
 70
     6
  9
$SURFTAB2
 70
     6
  9
$SURFTYPE
 70
     6
  9
$SURFU
 70
     6
  9
$SURFV
 70
     6
  9
$UCSBASE
  2

  9
$UCSNAME
  2

  9
$UCSORG
 10
0.0
 20
0.0
 30
0.0
  9
$UCSXDIR
 10
1.0
 20
0.0
 30
0.0
  9
$UCSYDIR
 10
0.0
 20
1.0
 30
0.0
  9
$UCSORTHOREF
  2

  9
$UCSORTHOVIEW
 70
     0
  9
$UCSORGTOP
 10
0.0
 20
0.0
 30
0.0
  9
$UCSORGBOTTOM
 10
0.0
 20
0.0
 30
0.0
  9
$UCSORGLEFT
 10
0.0
 20
0.0
 30
0.0
  9
$UCSORGRIGHT
 10
0.0
 20
0.0
 30
0.0
  9
$UCSORGFRONT
 10
0.0
 20
0.0
 30
0.0
  9
$UCSORGBACK
 10
0.0
 20
0.0
 30
0.0
  9
$PUCSBASE
  2

  9
$PUCSNAME
  2

  9
$PUCSORG
 10
0.0
 20
0.0
 30
0.0
  9
$PUCSXDIR
 10
1.0
 20
0.0
 30
0.0
  9
$PUCSYDIR
 10
0.0
 20
1.0
 30
0.0
  9
$PUCSORTHOREF
  2

  9
$PUCSORTHOVIEW
 70
     0
  9
$PUCSORGTOP
 10
0.0
 20
0.0
 30
0.0
  9
$PUCSORGBOTTOM
 10
0.0
 20
0.0
 30
0.0
  9
$PUCSORGLEFT
 10
0.0
 20
0.0
 30
0.0
  9
$PUCSORGRIGHT
 10
0.0
 20
0.0
 30
0.0
  9
$PUCSORGFRONT
 10
0.0
 20
0.0
 30
0.0
  9
$PUCSORGBACK
 10
0.0
 20
0.0
 30
0.0
  9
$USERI1
 70
     0
  9
$USERI2
 70
     0
  9
$USERI3
 70
     0
  9
$USERI4
 70
     0
  9
$USERI5
 70
     0
  9
$USERR1
 40
0.0
  9
$USERR2
 40
0.0
  9
$USERR3
 40
0.0
  9
$USERR4
 40
0.0
  9
$USERR5
 40
0.0
  9
$WORLDVIEW
 70
     1
  9
$SHADEDGE
 70
     3
  9
$SHADEDIF
 70
    70
  9
$TILEMODE
 70
     1
  9
$MAXACTVP
 70
    64
  9
$PINSBASE
 10
0.0
 20
0.0
 30
0.0
  9
$PLIMCHECK
 70
     0
  9
$PEXTMIN
 10
1.0000000000E+20
 20
1.0000000000E+20
 30
1.0000000000E+20
  9
$PEXTMAX
 10
-1.0000000000E+20
 20
-1.0000000000E+20
 30
-1.0000000000E+20
  9
$PLIMMIN
 10
0.0
 20
0.0
  9
$PLIMMAX
 10
420.0
 20
297.0
  9
$UNITMODE
 70
     0
  9
$VISRETAIN
 70
     1
  9
$PLINEGEN
 70
     0
  9
$PSLTSCALE
 70
     1
  9
$TREEDEPTH
 70
  3020
  9
$CMLSTYLE
  2
Standard
  9
$CMLJUST
 70
     0
  9
$CMLSCALE
 40
20.0
  9
$PROXYGRAPHICS
 70
     1
  9
$MEASUREMENT
 70
     1
  9
$CELWEIGHT
370
    -1
  9
$ENDCAPS
280
     0
  9
$JOINSTYLE
280
     0
  9
$LWDISPLAY
290
     1
  9
$INSUNITS
 70
     4
  9
$HYPERLINKBASE
  1

  9
$STYLESHEET
  1

  9
$XEDIT
290
     1
  9
$CEPSNTYPE
380
     0
  9
$PSTYLEMODE
290
     1
  9
$FINGERPRINTGUID
  2
{f8bbf216-e38c-4020-8e92-8d5120ccf27e}
  9
$VERSIONGUID
  2
{FAEB1C32-E019-11D5-929B-00C0DF256EC4}
  9
$EXTNAMES
290
     1
  9
$PSVPSCALE
 40
0.0
  9
$OLESTARTUP
290
     0
  0
ENDSEC
  0
SECTION
  2
CLASSES
  0
CLASS
  1
ACDBDICTIONARYWDFLT
  2
AcDbDictionaryWithDefault
  3
ObjectDBX Classes
 90
        0
280
     0
281
     0
  0
CLASS
  1
VISUALSTYLE
  2
AcDbVisualStyle
  3
ObjectDBX Classes
 90
     4095
280
     0
281
     0
  0
CLASS
  1
MATERIAL
  2
AcDbMaterial
  3
ObjectDBX Classes
 90
     1153
280
     0
281
     0
  0
CLASS
  1
SCALE
  2
AcDbScale
  3
ObjectDBX Classes
 90
     1153
280
     0
281
     0
  0
CLASS
  1
TABLESTYLE
  2
AcDbTableStyle
  3
ObjectDBX Classes
 90
     4095
280
     0
281
     0
  0
CLASS
  1
MLEADERSTYLE
  2
AcDbMLeaderStyle
  3
ACDB_MLEADERSTYLE_CLASS
 90
     4095
280
     0
281
     0
  0
CLASS
  1
SUN
  2
AcDbSun
  3
SCENEOE
 90
     1153
280
     0
281
     0
  0
CLASS
  1
ACDBPLACEHOLDER
  2
AcDbPlaceHolder
  3
ObjectDBX Classes
 90
        0
280
     0
281
     0
  0
CLASS
  1
LAYOUT
  2
AcDbLayout
  3
ObjectDBX Classes
 90
        0
280
     0
281
     0
  0
ENDSEC
  0
SECTION
  2
TABLES
  0
TABLE
  2
VPORT
  5
8
330
0
100
AcDbSymbolTable
 70
     1
  0
VPORT
  5
29
330
8
100
AcDbSymbolTableRecord
100
AcDbViewportTableRecord
  2
*Active
 70
     0
 10
0.0
 20
0.0
 11
1.0
 21
1.0
 12
139.7
 22
107.95
 13
0.0
 23
0.0
 14
10.0
 24
10.0
 15
10.0
 25
10.0
 16
0.0
 26
0.0
 36
1.0
 17
0.0
 27
0.0
 37
0.0
 40
215.9
 41
1.2941176471
 42
50.0
 43
0.0
 44
0.0
 50
0.0
 51
0.0
 71
     0
 72
  2000
 73
     1
 74
     3
 75
     0
 76
     0
 77
     0
 78
     0
281
     0
 65
     1
110
0.0
120
0.0
130
0.0
111
1.0
121
0.0
131
0.0
112
0.0
122
1.0
132
0.0
 79
     0
146
0.0
  0
ENDTAB
  0
TABLE
  2
LTYPE
  5
5
330
0
100
AcDbSymbolTable
 70
     6
  0
LTYPE
  5
14
330
5
100
AcDbSymbolTableRecord
100
AcDbLinetypeTableRecord
  2
ByBlock
 70
     0
  3

 72
    65
 73
     0
 40
0.0
  0
LTYPE
  5
15
330
5
100
AcDbSymbolTableRecord
100
AcDbLinetypeTableRecord
  2
ByLayer
 70
     0
  3

 72
    65
 73
     0
 40
0.0
  0
LTYPE
  5
16
330
5
100
AcDbSymbolTableRecord
100
AcDbLinetypeTableRecord
  2
Continuous
 70
     0
  3
Solid line
 72
    65
 73
     0
 40
0.0
  0
LTYPE
  5
6E
330
5
100
AcDbSymbolTableRecord
100
AcDbLinetypeTableRecord
  2
HIDDEN
 70
     0
  3
Hidden __ __ __ __ __ __ __ __ __ __ __ __ __ __
 72
    65
 73
     2
 40
1.905
 49
1.27
 74
     0
 49
-0.635
 74
     0
  0
LTYPE
  5
6F
330
5
100
AcDbSymbolTableRecord
100
AcDbLinetypeTableRecord
  2
PHANTOM
 70
     0
  3
Phantom ______  __  __  ______  __  __  ______
 72
    65
 73
     6
 40
12.7
 49
6.35
 74
     0
 49
-1.27
 74
     0
 49
1.27
 74
     0
 49
-1.27
 74
     0
 49
1.27
 74
     0
 49
-1.27
 74
     0
  0
LTYPE
  5
70
330
5
100
AcDbSymbolTableRecord
100
AcDbLinetypeTableRecord
  2
CENTER
 70
     0
  3
Center ____ _ ____ _ ____ _ ____ _ ____ _ ____
 72
    65
 73
     4
 40
10.16
 49
6.35
 74
     0
 49
-1.27
 74
     0
 49
1.27
 74
     0
 49
-1.27
 74
     0
  0
LTYPE
  5
71
330
5
100
AcDbSymbolTableRecord
100
AcDbLinetypeTableRecord
  2
CENTERX2
 70
     0
  3
Center (2x) ________  __  ________  __  _____
 72
    65
 73
     4
 40
20.32
 49
12.7
 74
     0
 49
-2.54
 74
     0
 49
2.54
 74
     0
 49
-2.54
 74
     0
  0
LTYPE
  5
72
330
5
100
AcDbSymbolTableRecord
100
AcDbLinetypeTableRecord
  2
DOT2
 70
     0
  3
Dot (.5x) ........................................
 72
    65
 73
     2
 40
0.635
 49
0.0
 74
     0
 49
-0.635
 74
     0
  0
ENDTAB
  0
TABLE
  2
LAYER
  5
2
330
0
100
AcDbSymbolTable
 70
    17
  0
LAYER
  5
10
330
2
100
AcDbSymbolTableRecord
100
AcDbLayerTableRecord
  2
0
 70
     0
 62
     7
  6
Continuous
370
    -3
390
F
  0
LAYER
  5
73
330
2
100
AcDbSymbolTableRecord
100
AcDbLayerTableRecord
  2
FORMAT
 70
     0
 62
     7
  6
Continuous
370
    -3
390
F
  0
LAYER
  5
74
330
2
100
AcDbSymbolTableRecord
100
AcDbLayerTableRecord
  2
YARDIMCI_GEOMETRI
 70
     0
 62
    -6
  6
Continuous
290
     0
370
    -3
390
F
  0
LAYER
  5
75
330
2
100
AcDbSymbolTableRecord
100
AcDbLayerTableRecord
  2
SAYFA_CERCEVESI
 70
     0
 62
     7
  6
Continuous
370
    25
390
F
  0
LAYER
  5
76
330
2
100
AcDbSymbolTableRecord
100
AcDbLayerTableRecord
  2
ANTET
 70
     0
 62
     7
  6
Continuous
370
    -3
390
F
  0
LAYER
  5
77
330
2
100
AcDbSymbolTableRecord
100
AcDbLayerTableRecord
  2
OLCU
 70
     0
 62
   150
  6
Continuous
370
    -3
390
F
  0
LAYER
  5
78
330
2
100
AcDbSymbolTableRecord
100
AcDbLayerTableRecord
  2
METIN
 70
     0
 62
    96
  6
Continuous
370
    -3
390
F
  0
LAYER
  5
79
330
2
100
AcDbSymbolTableRecord
100
AcDbLayerTableRecord
  2
BALON
 70
     0
 62
     5
  6
Continuous
370
    -3
390
F
  0
LAYER
  5
7A
330
2
100
AcDbSymbolTableRecord
100
AcDbLayerTableRecord
  2
VURGU
 70
     0
 62
     7
  6
Continuous
370
    -3
390
F
  0
LAYER
  5
7B
330
2
100
AcDbSymbolTableRecord
100
AcDbLayerTableRecord
  2
SILIK
 70
     0
 62
     7
  6
Continuous
370
    -3
390
F
  0
LAYER
  5
7C
330
2
100
AcDbSymbolTableRecord
100
AcDbLayerTableRecord
  2
MODEL
 70
     0
 62
     7
  6
Continuous
370
    -3
390
F
  0
LAYER
  5
7D
330
2
100
AcDbSymbolTableRecord
100
AcDbLayerTableRecord
  2
DETAYLANDıRMA
 70
     0
 62
   190
  6
Continuous
370
    -3
390
F
  0
LAYER
  5
7E
330
2
100
AcDbSymbolTableRecord
100
AcDbLayerTableRecord
  2
TOLERANS
 70
     0
 62
   230
  6
Continuous
370
    -3
390
F
  0
LAYER
  5
7F
330
2
100
AcDbSymbolTableRecord
100
AcDbLayerTableRecord
  2
MERKEZ_CIZGILERI
 70
     0
 62
    30
  6
Continuous
370
    -3
390
F
  0
LAYER
  5
80
330
2
100
AcDbSymbolTableRecord
100
AcDbLayerTableRecord
  2
KESIT-DETAY_CIZGILERI
 70
     0
 62
     7
  6
Continuous
370
    -3
390
F
  0
LAYER
  5
81
330
2
100
AcDbSymbolTableRecord
100
AcDbLayerTableRecord
  2
\U+041E\U+0421\U+0415\U+0412\U+042B\U+0415
 70
     0
 62
     7
  6
Continuous
370
    -3
390
F
  0
LAYER
  5
82
330
2
100
AcDbSymbolTableRecord
100
AcDbLayerTableRecord
  2
\U+0412\U+041E\U+0414\U+042F\U+041D\U+042B\U+0415_\U+0417\U+041D\U+0410\U+041A\U+0418
 70
     0
 62
    11
  6
Continuous
370
    -3
390
F
  0
ENDTAB
  0
TABLE
  2
STYLE
  5
3
330
0
100
AcDbSymbolTable
 70
     1
  0
STYLE
  5
11
330
3
100
AcDbSymbolTableRecord
100
AcDbTextStyleTableRecord
  2
Standard
 70
     0
 40
0.0
 41
1.0
 50
0.0
 71
     0
 42
3.5
  3
txt
  4

  0
ENDTAB
  0
TABLE
  2
VIEW
  5
6
330
0
100
AcDbSymbolTable
 70
     0
  0
ENDTAB
  0
TABLE
  2
UCS
  5
7
330
0
100
AcDbSymbolTable
 70
     0
  0
ENDTAB
  0
TABLE
  2
APPID
  5
9
330
0
100
AcDbSymbolTable
 70
     1
  0
APPID
  5
12
330
9
100
AcDbSymbolTableRecord
100
AcDbRegAppTableRecord
  2
ACAD
 70
     0
  0
ENDTAB
  0
TABLE
  2
DIMSTYLE
  5
A
330
0
100
AcDbSymbolTable
 70
     1
100
AcDbDimStyleTable
  0
DIMSTYLE
105
27
330
A
100
AcDbSymbolTableRecord
100
AcDbDimStyleTableRecord
  2
ISO-25
 70
     0
 41
2.5
 42
0.625
 43
3.75
 44
1.25
 73
     0
 74
     0
 77
     1
 78
     8
140
2.5
141
2.5
143
0.0393700787
147
0.625
171
     3
172
     1
178
     0
271
     2
272
     2
274
     3
278
    44
283
     0
284
     8
340
11
  0
ENDTAB
  0
TABLE
  2
BLOCK_RECORD
  5
1
330
0
100
AcDbSymbolTable
 70
     3
  0
BLOCK_RECORD
  5
1F
330
1
100
AcDbSymbolTableRecord
100
AcDbBlockTableRecord
  2
*Model_Space
340
22
  0
BLOCK_RECORD
  5
1B
330
1
100
AcDbSymbolTableRecord
100
AcDbBlockTableRecord
  2
*Paper_Space
340
1E
  0
BLOCK_RECORD
  5
23
330
1
100
AcDbSymbolTableRecord
100
AcDbBlockTableRecord
  2
*Paper_Space0
340
26
  0
BLOCK_RECORD
  5
88
330
1
100
AcDbSymbolTableRecord
100
AcDbBlockTableRecord
  2
SW_CENTERMARKSYMBOL_0
340
0
102
{BLKREFS
331
93
102
}
  0
BLOCK_RECORD
  5
B2
330
1
100
AcDbSymbolTableRecord
100
AcDbBlockTableRecord
  2
SW_CENTERMARKSYMBOL_1
340
0
102
{BLKREFS
331
BD
102
}
  0
ENDTAB
  0
ENDSEC
  0
SECTION
  2
BLOCKS
  0
BLOCK
  5
20
330
1F
100
AcDbEntity
  8
0
100
AcDbBlockBegin
  2
*Model_Space
 70
     0
 10
0.0
 20
0.0
 30
0.0
  3
*Model_Space
  1

  0
ENDBLK
  5
21
330
1F
100
AcDbEntity
  8
0
100
AcDbBlockEnd
  0
BLOCK
  5
1C
330
1B
100
AcDbEntity
 67
     1
  8
0
100
AcDbBlockBegin
  2
*Paper_Space
 70
     0
 10
0.0
 20
0.0
 30
0.0
  3
*Paper_Space
  1

  0
ENDBLK
  5
1D
330
1B
100
AcDbEntity
 67
     1
  8
0
100
AcDbBlockEnd
  0
BLOCK
  5
24
330
23
100
AcDbEntity
  8
0
100
AcDbBlockBegin
  2
*Paper_Space0
 70
     0
 10
0.0
 20
0.0
 30
0.0
  3
*Paper_Space0
  1

  0
ENDBLK
  5
25
330
23
100
AcDbEntity
  8
0
100
AcDbBlockEnd
  0
BLOCK
  5
89
330
88
100
AcDbEntity
  8
0
100
AcDbBlockBegin
  2
SW_CENTERMARKSYMBOL_0
 70
     0
 10
0.0
 20
0.0
 30
0.0
  3
SW_CENTERMARKSYMBOL_0
  1

  0
LINE
  5
8B
330
88
100
AcDbEntity
  8
FORMAT
 62
     0
100
AcDbLine
 10
0.0
 20
0.0
 30
0.0
 11
0.0
 21
2.5
 31
0.0
  0
LINE
  5
8C
330
88
100
AcDbEntity
  8
FORMAT
 62
     0
100
AcDbLine
 10
0.0
 20
0.0
 30
0.0
 11
-2.5
 21
0.0
 31
0.0
  0
LINE
  5
8D
330
88
100
AcDbEntity
  8
FORMAT
 62
     0
100
AcDbLine
 10
0.0
 20
0.0
 30
0.0
 11
0.0
 21
-2.5
 31
0.0
  0
LINE
  5
8E
330
88
100
AcDbEntity
  8
FORMAT
 62
     0
100
AcDbLine
 10
0.0
 20
0.0
 30
0.0
 11
2.5
 21
0.0
 31
0.0
  0
LINE
  5
8F
330
88
100
AcDbEntity
  8
FORMAT
 62
     0
100
AcDbLine
 10
0.0
 20
5.0
 30
0.0
 11
0.0
 21
65.0
 31
0.0
  0
LINE
  5
90
330
88
100
AcDbEntity
  8
FORMAT
 62
     0
100
AcDbLine
 10
-5.0
 20
0.0
 30
0.0
 11
-65.0
 21
0.0
 31
0.0
  0
LINE
  5
91
330
88
100
AcDbEntity
  8
FORMAT
 62
     0
100
AcDbLine
 10
0.0
 20
-5.0
 30
0.0
 11
0.0
 21
-65.0
 31
0.0
  0
LINE
  5
92
330
88
100
AcDbEntity
  8
FORMAT
 62
     0
100
AcDbLine
 10
5.0
 20
0.0
 30
0.0
 11
65.0
 21
0.0
 31
0.0
  0
ENDBLK
  5
8A
330
88
100
AcDbEntity
  8
0
100
AcDbBlockEnd
  0
BLOCK
  5
B3
330
B2
100
AcDbEntity
  8
0
100
AcDbBlockBegin
  2
SW_CENTERMARKSYMBOL_1
 70
     0
 10
0.0
 20
0.0
 30
0.0
  3
SW_CENTERMARKSYMBOL_1
  1

  0
LINE
  5
B5
330
B2
100
AcDbEntity
  8
FORMAT
 62
     0
100
AcDbLine
 10
0.0
 20
0.0
 30
0.0
 11
0.0
 21
2.5
 31
0.0
  0
LINE
  5
B6
330
B2
100
AcDbEntity
  8
FORMAT
 62
     0
100
AcDbLine
 10
0.0
 20
0.0
 30
0.0
 11
-2.5
 21
0.0
 31
0.0
  0
LINE
  5
B7
330
B2
100
AcDbEntity
  8
FORMAT
 62
     0
100
AcDbLine
 10
0.0
 20
0.0
 30
0.0
 11
0.0
 21
-2.5
 31
0.0
  0
LINE
  5
B8
330
B2
100
AcDbEntity
  8
FORMAT
 62
     0
100
AcDbLine
 10
0.0
 20
0.0
 30
0.0
 11
2.5
 21
0.0
 31
0.0
  0
LINE
  5
B9
330
B2
100
AcDbEntity
  8
FORMAT
 62
     0
100
AcDbLine
 10
0.0
 20
5.0
 30
0.0
 11
0.0
 21
47.5
 31
0.0
  0
LINE
  5
BA
330
B2
100
AcDbEntity
  8
FORMAT
 62
     0
100
AcDbLine
 10
-5.0
 20
0.0
 30
0.0
 11
-47.5
 21
0.0
 31
0.0
  0
LINE
  5
BB
330
B2
100
AcDbEntity
  8
FORMAT
 62
     0
100
AcDbLine
 10
0.0
 20
-5.0
 30
0.0
 11
0.0
 21
-47.5
 31
0.0
  0
LINE
  5
BC
330
B2
100
AcDbEntity
  8
FORMAT
 62
     0
100
AcDbLine
 10
5.0
 20
0.0
 30
0.0
 11
47.5
 21
0.0
 31
0.0
  0
ENDBLK
  5
B4
330
B2
100
AcDbEntity
  8
0
100
AcDbBlockEnd
  0
ENDSEC
  0
SECTION
  2
ENTITIES
  0
LINE
  5
83
330
1F
100
AcDbEntity
  8
0
  6
Continuous
 62
     7
370
    25
100
AcDbLine
 10
127.2435239065
 20
66.5878686308
 30
0.0
 11
259.7787464055
 21
66.5878686308
 31
0.0
  0
LINE
  5
84
330
1F
100
AcDbEntity
  8
0
  6
Continuous
 62
     7
370
    25
100
AcDbLine
 10
259.7787464055
 20
156.5878686308
 30
0.0
 11
127.1921097378
 21
156.5878686308
 31
0.0
  0
CIRCLE
  5
85
330
1F
100
AcDbEntity
  8
0
  6
Continuous
 62
     7
370
    25
100
AcDbCircle
 10
83.7787464055
 20
111.5878686308
 30
0.0
 40
51.10000000000001
  0
CIRCLE
  5
86
330
1F
100
AcDbEntity
  8
0
  6
Continuous
 62
     7
370
    25
100
AcDbCircle
 10
83.7787464055
 20
111.5878686308
 30
0.0
 40
62.50000000000001
  0
LINE
  5
87
330
1F
100
AcDbEntity
  8
0
  6
Continuous
 62
     7
370
    25
100
AcDbLine
 10
259.7787464055
 20
156.5878686308
 30
0.0
 11
259.7787464055
 21
66.5878686308
 31
0.0
  0
INSERT
  5
93
330
1F
100
AcDbEntity
  8
FORMAT
100
AcDbBlockReference
  2
SW_CENTERMARKSYMBOL_0
 10
83.7787464055
 20
111.5878686308
 30
0.0
  0
LINE
  5
94
330
1F
100
AcDbEntity
  8
0
  6
Continuous
 62
     7
370
    25
100
AcDbLine
 10
21.2787464055
 20
-13.3215011626
 30
0.0
 11
21.2787464055
 21
-367.3215011626
 31
0.0
  0
LINE
  5
95
330
1F
100
AcDbEntity
  8
0
  6
Continuous
 62
     7
370
    25
100
AcDbLine
 10
146.2787464055
 20
-145.399939497
 30
0.0
 11
146.2787464055
 21
-13.3215011626
 31
0.0
  0
LINE
  5
96
330
1F
100
AcDbEntity
  8
0
  6
Continuous
 62
     7
370
    25
100
AcDbLine
 10
146.2787464055
 20
-367.3215011626
 30
0.0
 11
146.2787464055
 21
-235.3215011626
 31
0.0
  0
LINE
  5
97
330
1F
100
AcDbEntity
  8
0
  6
Continuous
 62
     7
370
    25
100
AcDbLine
 10
146.2787464055
 20
-235.3215011626
 30
0.0
 11
259.7787464055
 21
-235.3215011626
 31
0.0
  0
LINE
  5
98
330
1F
100
AcDbEntity
  8
0
  6
Continuous
 62
     7
370
    25
100
AcDbLine
 10
259.7787464055
 20
-145.3215011626
 30
0.0
 11
146.2223818376
 21
-145.3215011626
 31
0.0
  0
SPLINE
  5
99
330
1F
100
AcDbEntity
  8
0
  6
Continuous
 62
     7
370
    25
100
AcDbSpline
210
0.0
220
0.0
230
1.0
 70
     8
 71
     3
 72
    37
 73
    33
 74
     0
 42
0.00000001
 43
0.00000001
 40
0.0
 40
0.0
 40
0.0
 40
0.0
 40
0.0095577882306397
 40
0.0320479732643538
 40
0.0545390842079859
 40
0.0959918497071701
 40
0.1384717125402379
 40
0.183668035013988
 40
0.2298131957806912
 40
0.283213500485101
 40
0.3105533432491316
 40
0.3378913990816721
 40
0.3837092545444458
 40
0.4072015167258891
 40
0.4306883108147172
 40
0.4672712918399038
 40
0.5048764166874781
 40
0.541482024129901
 40
0.5791263508721862
 40
0.6034298420904288
 40
0.6277390502161445
 40
0.6776800404695515
 40
0.7278586363782594
 40
0.7790565773667675
 40
0.8087013762421095
 40
0.838341762406625
 40
0.8691246847508703
 40
0.8999005723261027
 40
0.924450260232067
 40
0.9489973984103324
 40
0.9744993157228721
 40
1.0
 40
1.0
 40
1.0
 40
1.0
 10
146.2223382299806
 20
-145.3999394970359
 30
0.0
 10
146.2409998631791
 20
-145.3739875158645
 30
0.0
 10
146.3035737042587
 20
-145.2869685969821
 30
0.0
 10
146.1141455867743
 20
-145.5500296092025
 30
0.0
 10
145.7086648000461
 20
-146.1157385393851
 30
0.0
 10
144.7998305995363
 20
-147.3925044133943
 30
0.0
 10
143.2064139317972
 20
-149.6810030226522
 30
0.0
 10
141.1167573468298
 20
-152.7883854476604
 30
0.0
 10
138.5208653187154
 20
-156.8603680856436
 30
0.0
 10
136.0707588002602
 20
-161.0355297041845
 30
0.0
 10
133.9967507378048
 20
-164.964526576148
 30
0.0
 10
132.1243792038315
 20
-168.8490558528129
 30
0.0
 10
130.4596227124407
 20
-172.8820369053274
 30
0.0
 10
129.1179070818908
 20
-177.0003557082604
 30
0.0
 10
128.1100593476998
 20
-180.8496153291022
 30
0.0
 10
127.3033410901764
 20
-185.5371644794999
 30
0.0
 10
127.0405527063582
 20
-190.9996908169647
 30
0.0
 10
127.4794838794951
 20
-196.4904491938023
 30
0.0
 10
128.423505483299
 20
-201.1705892805088
 30
0.0
 10
129.5609618992914
 20
-205.0821726684495
 30
0.0
 10
131.0798337470904
 20
-209.3723199185183
 30
0.0
 10
133.3152360986344
 20
-214.4267922502102
 30
0.0
 10
136.2401533221073
 20
-219.9367723398892
 30
0.0
 10
138.7470045304848
 20
-224.1272701399537
 30
0.0
 10
140.7152531332846
 20
-227.2214818194281
 30
0.0
 10
142.1954292577619
 20
-229.4629728687399
 30
0.0
 10
143.5209248237959
 20
-231.4124862927696
 30
0.0
 10
144.5691495611906
 20
-232.9182241902519
 30
0.0
 10
145.3378992417166
 20
-234.0069464412026
 30
0.0
 10
145.8680608414966
 20
-234.7499248907833
 30
0.0
 10
146.2124187664002
 20
-235.2296709765883
 30
0.0
 10
146.2566375488142
 20
-235.2908915939567
 30
0.0
 10
146.2787464055061
 20
-235.3215011626081
 30
0.0
  0
LINE
  5
9A
330
1F
100
AcDbEntity
  8
0
  6
Continuous
 62
     7
370
    25
100
AcDbLine
 10
146.2787464055
 20
-367.3215011626
 30
0.0
 11
21.2787464055
 21
-367.3215011626
 31
0.0
  0
LINE
  5
9B
330
1F
100
AcDbEntity
  8
0
  6
Continuous
 62
     7
370
    25
100
AcDbLine
 10
146.2787464055
 20
-13.3215011626
 30
0.0
 11
21.2787464055
 21
-13.3215011626
 31
0.0
  0
LINE
  5
9C
330
1F
100
AcDbEntity
  8
0
  6
Continuous
 62
     7
370
    25
100
AcDbLine
 10
259.7787464055
 20
-145.3215011626
 30
0.0
 11
259.7787464055
 21
-235.3215011626
 31
0.0
  0
LINE
  5
9D
330
1F
100
AcDbEntity
  8
0
  6
Continuous
 62
     7
370
    25
100
AcDbLine
 10
146.2787464055
 20
478.371192371
 30
0.0
 11
146.2787464055
 21
610.371192371
 31
0.0
  0
LINE
  5
9E
330
1F
100
AcDbEntity
  8
0
  6
Continuous
 62
     7
370
    25
100
AcDbLine
 10
146.2787464055
 20
256.371192371
 30
0.0
 11
146.2787464055
 21
388.371192371
 31
0.0
  0
LINE
  5
9F
330
1F
100
AcDbEntity
  8
0
  6
Continuous
 62
     7
370
    25
100
AcDbLine
 10
21.2787464055
 20
610.371192371
 30
0.0
 11
21.2787464055
 21
256.371192371
 31
0.0
  0
LINE
  5
A0
330
1F
100
AcDbEntity
  8
0
  6
Continuous
 62
     7
370
    25
100
AcDbLine
 10
146.2787464055
 20
388.371192371
 30
0.0
 11
259.7787464055
 21
388.371192371
 31
0.0
  0
LINE
  5
A1
330
1F
100
AcDbEntity
  8
0
  6
Continuous
 62
     7
370
    25
100
AcDbLine
 10
259.7787464055
 20
478.371192371
 30
0.0
 11
146.2787464055
 21
478.371192371
 31
0.0
  0
SPLINE
  5
A2
330
1F
100
AcDbEntity
  8
0
  6
Continuous
 62
     7
370
    25
100
AcDbSpline
210
0.0
220
0.0
230
1.0
 70
     8
 71
     3
 72
    36
 73
    32
 74
     0
 42
0.00000001
 43
0.00000001
 40
0.0
 40
0.0
 40
0.0
 40
0.0
 40
0.0444507158898123
 40
0.0674259259273967
 40
0.090402969057816
 40
0.134819455884835
 40
0.1803351096380852
 40
0.2288897926266001
 40
0.2784535700100149
 40
0.3071696852196123
 40
0.3358838790054859
 40
0.365462911848986
 40
0.3950334951564156
 40
0.4337850410556018
 40
0.4735216132219252
 40
0.5123313648771919
 40
0.5524893400263446
 40
0.5743898343399834
 40
0.5962948634306826
 40
0.6413191830937767
 40
0.6703113285562917
 40
0.6993074010876122
 40
0.7291310652030946
 40
0.7589542562176762
 40
0.7881743033158041
 40
0.817390993407435
 40
0.8476112068748866
 40
0.8778253069147428
 40
0.9213234557618077
 40
0.9660274627350708
 40
0.9999999999999999
 40
0.9999999999999999
 40
0.9999999999999999
 40
0.9999999999999999
 10
146.2787464055061
 20
478.3711923710046
 30
0.0
 10
146.2148319737388
 20
478.2826479580947
 30
0.0
 10
146.1178821348945
 20
478.1483376571998
 30
0.0
 10
145.524934031512
 20
477.319409037601
 30
0.0
 10
144.7397571320938
 20
476.2116007333771
 30
0.0
 10
143.3838864111848
 20
474.2709256960383
 30
0.0
 10
141.2539260632716
 20
471.1140827939525
 30
0.0
 10
138.6869129606951
 20
467.1015652909932
 30
0.0
 10
136.2472873694667
 20
462.9632427492728
 30
0.0
 10
134.1892637900721
 20
459.110982627837
 30
0.0
 10
132.560621049403
 20
455.7665909426159
 30
0.0
 10
131.0125557733091
 20
452.177931950741
 30
0.0
 10
129.4688979597161
 20
447.9475961711224
 30
0.0
 10
128.0966174919221
 20
442.9950113680827
 30
0.0
 10
127.2054149803004
 20
437.3352491893298
 30
0.0
 10
127.0617686275303
 20
431.4718156493507
 30
0.0
 10
127.6113556122776
 20
426.542900747922
 30
0.0
 10
128.4415279899551
 20
422.5825121667406
 30
0.0
 10
129.5537082895157
 20
418.5168173296675
 30
0.0
 10
131.0751635974809
 20
414.3571359713184
 30
0.0
 10
132.9197336753497
 20
410.2061825258235
 30
0.0
 10
134.5787266837993
 20
406.8776831387877
 30
0.0
 10
136.2873410282029
 20
403.7392386315804
 30
0.0
 10
137.9892416569408
 20
400.8265927690541
 30
0.0
 10
139.6232318990203
 20
398.1768416760907
 30
0.0
 10
141.1712298526141
 20
395.7730898032293
 30
0.0
 10
142.597094471011
 20
393.6332904613371
 30
0.0
 10
144.0454223191168
 20
391.5197766576862
 30
0.0
 10
145.3205598222139
 20
389.7066516866857
 30
0.0
 10
146.167731095596
 20
388.5251334174806
 30
0.0
 10
146.2058698941268
 20
388.472400697557
 30
0.0
 10
146.2223382299806
 20
388.4496307054325
 30
0.0
  0
LINE
  5
A3
330
1F
100
AcDbEntity
  8
0
  6
Continuous
 62
     7
370
    25
100
AcDbLine
 10
21.2787464055
 20
610.371192371
 30
0.0
 11
146.2787464055
 21
610.371192371
 31
0.0
  0
LINE
  5
A4
330
1F
100
AcDbEntity
  8
0
  6
Continuous
 62
     7
370
    25
100
AcDbLine
 10
21.2787464055
 20
256.371192371
 30
0.0
 11
146.2787464055
 21
256.371192371
 31
0.0
  0
LINE
  5
A5
330
1F
100
AcDbEntity
  8
0
  6
Continuous
 62
     7
370
    25
100
AcDbLine
 10
259.7787464055
 20
478.371192371
 30
0.0
 11
259.7787464055
 21
388.371192371
 31
0.0
  0
LINE
  5
A6
330
1F
100
AcDbEntity
  8
0
  6
Continuous
 62
     7
370
    25
100
AcDbLine
 10
293.6167847879
 20
49.0878686308
 30
0.0
 11
647.6167847879
 21
49.0878686308
 31
0.0
  0
LINE
  5
A7
330
1F
100
AcDbEntity
  8
0
  6
Continuous
 62
     7
370
    25
100
AcDbLine
 10
647.6167847879
 20
174.0878686308
 30
0.0
 11
293.6167847879
 21
174.0878686308
 31
0.0
  0
LINE
  5
A8
330
1F
100
AcDbEntity
  8
0
  6
Continuous
 62
     7
370
    25
100
AcDbLine
 10
647.6167847879
 20
174.0878686308
 30
0.0
 11
647.6167847879
 21
49.0878686308
 31
0.0
  0
LINE
  5
A9
330
1F
100
AcDbEntity
  8
0
  6
Continuous
 62
     7
370
    25
100
AcDbLine
 10
293.6167847879
 20
174.0878686308
 30
0.0
 11
293.6167847879
 21
49.0878686308
 31
0.0
  0
LINE
  5
AA
330
1F
100
AcDbEntity
  8
0
  6
Continuous
 62
     7
370
    25
100
AcDbLine
 10
-52.1436469016
 20
174.0878686308
 30
0.0
 11
-406.1436469016
 21
174.0878686308
 31
0.0
  0
LINE
  5
AB
330
1F
100
AcDbEntity
  8
0
  6
Continuous
 62
     7
370
    25
100
AcDbLine
 10
-406.1436469016
 20
49.0878686308
 30
0.0
 11
-52.1436469016
 21
49.0878686308
 31
0.0
  0
CIRCLE
  5
AC
330
1F
100
AcDbEntity
  8
0
  6
Continuous
 62
     7
370
    25
100
AcDbCircle
 10
-229.1436469016
 20
111.5878686308
 30
0.0
 40
36.80000000000001
  0
CIRCLE
  5
AD
330
1F
100
AcDbEntity
  8
0
  6
Continuous
 62
     7
370
    25
100
AcDbCircle
 10
-229.1436469016
 20
111.5878686308
 30
0.0
 40
45.00000000000003
  0
LINE
  5
AE
330
1F
100
AcDbEntity
  8
0
  6
Continuous
 62
     7
370
    25
100
AcDbLine
 10
-406.1436469016
 20
111.5878686308
 30
0.0
 11
-406.1436469016
 21
174.0878686308
 31
0.0
  0
LINE
  5
AF
330
1F
100
AcDbEntity
  8
0
  6
Continuous
 62
     7
370
    25
100
AcDbLine
 10
-406.1436469016
 20
49.0878686308
 30
0.0
 11
-406.1436469016
 21
111.5878686308
 31
0.0
  0
LINE
  5
B0
330
1F
100
AcDbEntity
  8
0
  6
Continuous
 62
     7
370
    25
100
AcDbLine
 10
-52.1436469016
 20
111.5878686308
 30
0.0
 11
-52.1436469016
 21
174.0878686308
 31
0.0
  0
LINE
  5
B1
330
1F
100
AcDbEntity
  8
0
  6
Continuous
 62
     7
370
    25
100
AcDbLine
 10
-52.1436469016
 20
49.0878686308
 30
0.0
 11
-52.1436469016
 21
111.5878686308
 31
0.0
  0
INSERT
  5
BD
330
1F
100
AcDbEntity
  8
FORMAT
100
AcDbBlockReference
  2
SW_CENTERMARKSYMBOL_1
 10
-229.1436469016
 20
111.5878686308
 30
0.0
  0
LINE
  5
BE
330
1F
100
AcDbEntity
  8
0
  6
Continuous
 62
     7
370
    25
100
AcDbLine
 10
494.0802792546
 20
-129.0707822195
 30
0.0
 11
382.668417085
 21
-64.7540832084
 31
0.0
  0
LINE
  5
BF
330
1F
100
AcDbEntity
  8
0
  6
Continuous
 62
     7
370
    25
100
AcDbLine
 10
632.984217625
 20
-209.258319001
 30
0.0
 11
584.0875939118
 21
-181.0308989689
 31
0.0
  0
LINE
  5
C0
330
1F
100
AcDbEntity
  8
0
  6
Continuous
 62
     7
370
    25
100
AcDbLine
 10
320.1734962952
 20
-173.010191006
 30
0.0
 11
570.4892968353
 21
-317.5144267986
 31
0.0
  0
LINE
  5
C1
330
1F
100
AcDbEntity
  8
0
  6
Continuous
 62
     7
370
    25
100
AcDbLine
 10
537.1108316364
 20
-208.150006584
 30
0.0
 11
623.5278219333
 21
-158.2625399702
 31
0.0
  0
LINE
  5
C2
330
1F
100
AcDbEntity
  8
0
  6
Continuous
 62
     7
370
    25
100
AcDbLine
 10
578.5314789646
 20
-80.318142356
 30
0.0
 11
492.1029483556
 21
-130.2122710502
 31
0.0
  0
SPLINE
  5
C3
330
1F
100
AcDbEntity
  8
0
  6
Continuous
 62
     7
370
    25
100
AcDbSpline
210
0.0
220
0.0
230
1.0
 70
     8
 71
     3
 72
    29
 73
    25
 74
     0
 42
0.00000001
 43
0.00000001
 40
0.0
 40
0.0
 40
0.0
 40
0.0
 40
0.0591468256951345
 40
0.0897180035985607
 40
0.1202916206443093
 40
0.1793929006070475
 40
0.2399567494687164
 40
0.3045643787029265
 40
0.3705147249010888
 40
0.408724842037419
 40
0.4469324024969486
 40
0.486290731486789
 40
0.5256378173902772
 40
0.5772012373450384
 40
0.6300753488322355
 40
0.6817162182867501
 40
0.7351510552487541
 40
0.7642921994097854
 40
0.793439377616906
 40
0.8533494495661719
 40
0.8919268569233474
 40
0.9305094897003947
 40
0.970193328930371
 40
1.0
 40
1.0
 40
1.0
 40
1.0
 10
488.9532256308747
 20
-147.2523189930236
 30
0.0
 10
488.9706416575613
 20
-149.1012385398963
 30
0.0
 10
488.9970594936256
 20
-151.9058078233739
 30
0.0
 10
489.1639229168698
 20
-156.0274185689144
 30
0.0
 10
489.3920577710323
 20
-160.2554782497035
 30
0.0
 10
489.8055768688418
 20
-165.7237321042408
 30
0.0
 10
490.5316924864021
 20
-172.5113267177102
 30
0.0
 10
491.5538184500569
 20
-179.4785197425228
 30
0.0
 10
492.7549785832316
 20
-185.4344493310925
 30
0.0
 10
494.0236954084694
 20
-190.2453269938497
 30
0.0
 10
495.2369131242257
 20
-194.0057260051099
 30
0.0
 10
496.6798307696188
 20
-197.6134853126048
 30
0.0
 10
498.5795990142379
 20
-201.3710082261835
 30
0.0
 10
501.1112563110624
 20
-205.1089616562246
 30
0.0
 10
504.4831378947083
 20
-208.4925911869963
 30
0.0
 10
508.5276355872583
 20
-211.0563540941026
 30
0.0
 10
512.4015299170227
 20
-212.412062607595
 30
0.0
 10
515.7889493546429
 20
-213.0098601664152
 30
0.0
 10
519.4503396708374
 20
-213.2725980591665
 30
0.0
 10
523.4669712914093
 20
-212.9801754414982
 30
0.0
 10
527.7079790834414
 20
-212.0894441199888
 30
0.0
 10
531.229546398171
 20
-210.9670414943205
 30
0.0
 10
534.3880052382551
 20
-209.6582596007121
 30
0.0
 10
536.2818282521433
 20
-208.5818999284587
 30
0.0
 10
537.0941486595729
 20
-208.1202153248323
 30
0.0
  0
SPLINE
  5
C4
330
1F
100
AcDbEntity
  8
0
  6
Continuous
 62
     7
370
    25
100
AcDbSpline
210
0.0
220
0.0
230
1.0
 70
     8
 71
     3
 72
    16
 73
    12
 74
     0
 42
0.00000001
 43
0.00000001
 40
0.0
 40
0.0
 40
0.0
 40
0.0
 40
0.1111967676519513
 40
0.2304507954419083
 40
0.3496870719378951
 40
0.4735195017726678
 40
0.5973236323923599
 40
0.696081231527492
 40
0.7948285737099916
 40
0.8974167669601885
 40
1.0
 40
1.0
 40
1.0
 40
1.0
 10
492.1704920772167
 20
-130.3283145957257
 30
0.0
 10
491.9042158849788
 20
-130.4518309347638
 30
0.0
 10
491.3523692656549
 20
-130.707813542734
 30
0.0
 10
490.7525702275407
 20
-131.7245987261201
 30
0.0
 10
490.2068818115436
 20
-133.0676141190002
 30
0.0
 10
489.7676830238426
 20
-134.8562549346676
 30
0.0
 10
489.4436397371439
 20
-136.9344407887981
 30
0.0
 10
489.2174989615863
 20
-139.1967253357522
 30
0.0
 10
489.0669863688453
 20
-141.5800934456173
 30
0.0
 10
488.9712602222398
 20
-144.2453017169226
 30
0.0
 10
488.9592370644394
 20
-146.2499960561077
 30
0.0
 10
488.9532256308747
 20
-147.2523189930236
 30
0.0
  0
LWPOLYLINE
  5
C5
330
1F
100
AcDbEntity
  8
0
  6
Continuous
 62
     7
370
    25
100
AcDbPolyline
 90
       91
 70
   128
 43
0.0
 10
395.6151305143
 20
-93.3693836127
 10
395.507475728
 20
-89.8715934164
 10
395.1850358526
 20
-86.5151396728
 10
394.6493817826
 20
-83.3163746872
 10
393.9031231709
 20
-80.290882521
 10
392.9498957144
 20
-77.453403068
 10
391.7943434414
 20
-74.8177602428
 10
390.4420960865
 20
-72.3967946324
 10
388.8997416629
 20
-70.2023009378
 10
387.1747943662
 20
-68.2449705118
 10
385.2756579663
 20
-66.5343392714
 10
383.2115848649
 20
-65.07874124
 10
380.9926310186
 20
-63.8852679451
 10
378.6296069475
 20
-62.9597338684
 10
376.1340250673
 20
-62.306648119
 10
373.5180436022
 20
-61.929192465
 10
370.7944073508
 20
-61.8292058324
 10
367.9763855952
 20
-62.007175346
 10
365.0777074541
 20
-62.4622339563
 10
362.1124949961
 20
-63.1921646634
 10
359.0951944382
 20
-64.1934113184
 10
356.0405057653
 20
-65.461095948
 10
352.9633111137
 20
-66.9890425204
 10
349.8786022664
 20
-68.7698070333
 10
346.8014076149
 20
-70.7947137811
 10
343.746718942
 20
-73.0538976215
 10
340.7294183841
 20
-75.5363520381
 10
337.7642059261
 20
-78.2299827625
 10
334.865527785
 20
-81.1216666964
 10
332.0475060294
 20
-84.1973158466
 10
329.323869778
 20
-87.4419459594
 10
326.7078883129
 20
-90.8397495232
 10
324.2123064327
 20
-94.3741727804
 10
321.8492823616
 20
-98.0279963763
 10
319.6303285153
 20
-101.7834192496
 10
317.5662554139
 20
-105.6221453576
 10
315.667119014
 20
-109.5254728124
 10
313.9421717173
 20
-113.4743849952
 10
312.3998172937
 20
-117.4496432027
 10
311.0475699388
 20
-121.4318803765
 10
309.8920176658
 20
-125.4016954573
 10
308.9387902093
 20
-129.3397479053
 10
308.1925315976
 20
-133.2268519246
 10
307.6568775276
 20
-137.0440699353
 10
307.3344376522
 20
-140.7728048348
 10
307.2267828659
 20
-144.3948906016
 10
307.3344376522
 20
-147.892680798
 10
307.6568775276
 20
-151.2491345416
 10
308.1925315976
 20
-154.4478995272
 10
308.9387902093
 20
-157.4733916934
 10
309.8920176658
 20
-160.3108711464
 10
311.0475699388
 20
-162.9465139716
 10
312.3998172937
 20
-165.367479582
 10
313.9421717173
 20
-167.5619732765
 10
315.667119014
 20
-169.5193037026
 10
317.5662554139
 20
-171.229934943
 10
319.6303285153
 20
-172.6855329743
 10
321.8492823616
 20
-173.8790062693
 10
324.2123064327
 20
-174.804540346
 10
326.7078883129
 20
-175.4576260954
 10
329.323869778
 20
-175.8350817494
 10
332.0475060294
 20
-175.935068382
 10
334.865527785
 20
-175.7570988684
 10
337.7642059261
 20
-175.3020402581
 10
340.7294183841
 20
-174.5721095509
 10
343.746718942
 20
-173.570862896
 10
346.8014076149
 20
-172.3031782663
 10
349.8786022664
 20
-170.775231694
 10
352.9633111137
 20
-168.9944671811
 10
356.0405057653
 20
-166.9695604333
 10
359.0951944382
 20
-164.7103765929
 10
362.1124949961
 20
-162.2279221763
 10
365.0777074541
 20
-159.5342914519
 10
367.9763855952
 20
-156.6426075179
 10
370.7944073508
 20
-153.5669583678
 10
373.5180436022
 20
-150.3223282549
 10
376.1340250673
 20
-146.9245246912
 10
378.6296069475
 20
-143.390101434
 10
380.9926310186
 20
-139.7362778381
 10
383.2115848649
 20
-135.9808549648
 10
385.2756579663
 20
-132.1421288568
 10
387.1747943662
 20
-128.238801402
 10
388.8997416629
 20
-124.2898892192
 10
390.4420960865
 20
-120.3146310117
 10
391.7943434414
 20
-116.3323938379
 10
392.9498957144
 20
-112.362578757
 10
393.9031231709
 20
-108.4245263091
 10
394.6493817826
 20
-104.5374222898
 10
395.1850358526
 20
-100.7202042791
 10
395.507475728
 20
-96.9914693796
 10
395.6151305143
 20
-93.3693836127
  0
LWPOLYLINE
  5
C6
330
1F
100
AcDbEntity
  8
0
  6
Continuous
 62
     7
370
    25
100
AcDbPolyline
 90
       13
 70
   128
 43
0.0
 10
645.9309310543
 20
-237.8736194053
 10
645.823276268
 20
-234.375829209
 10
645.5008363926
 20
-231.0193754654
 10
644.9651823226
 20
-227.8206104798
 10
644.2189237109
 20
-224.7951183136
 10
643.2656962544
 20
-221.9576388606
 10
642.1101439815
 20
-219.3219960354
 10
640.7578966266
 20
-216.901030425
 10
639.2155422029
 20
-214.7065367304
 10
637.4905949062
 20
-212.7492063044
 10
635.5914585064
 20
-211.038575064
 10
633.5273854049
 20
-209.5829770326
 10
632.984217625
 20
-209.258319001
  0
LWPOLYLINE
  5
C7
330
1F
100
AcDbEntity
  8
0
  6
Continuous
 62
     7
370
    25
100
AcDbPolyline
 90
       35
 70
   128
 43
0.0
 10
570.4892968353
 20
-317.5144267986
 10
572.1650829016
 20
-318.3832420619
 10
574.5281069727
 20
-319.3087761386
 10
577.0236888529
 20
-319.961861888
 10
579.6396703181
 20
-320.339317542
 10
582.3633065694
 20
-320.4393041746
 10
585.181328325
 20
-320.261334661
 10
588.0800064661
 20
-319.8062760507
 10
591.0452189241
 20
-319.0763453436
 10
594.0625194821
 20
-318.0750986886
 10
597.1172081549
 20
-316.8074140589
 10
600.1944028065
 20
-315.2794674866
 10
603.2791116538
 20
-313.4987029737
 10
606.3563063054
 20
-311.4737962259
 10
609.4109949782
 20
-309.2146123855
 10
612.4282955361
 20
-306.7321579689
 10
615.3935079942
 20
-304.0385272445
 10
618.2921861352
 20
-301.1468433105
 10
621.1102078908
 20
-298.0711941604
 10
623.8338441422
 20
-294.8265640476
 10
626.4498256074
 20
-291.4287604838
 10
628.9454074875
 20
-287.8943372266
 10
631.3084315586
 20
-284.2405136307
 10
633.5273854049
 20
-280.4850907574
 10
635.5914585064
 20
-276.6463646494
 10
637.4905949062
 20
-272.7430371946
 10
639.2155422029
 20
-268.7941250118
 10
640.7578966266
 20
-264.8188668043
 10
642.1101439815
 20
-260.8366296305
 10
643.2656962544
 20
-256.8668145497
 10
644.2189237109
 20
-252.9287621017
 10
644.9651823226
 20
-249.0416580824
 10
645.5008363926
 20
-245.2244400717
 10
645.823276268
 20
-241.4957051722
 10
645.9309310543
 20
-237.8736194053
  0
LWPOLYLINE
  5
C8
330
1F
100
AcDbEntity
  8
0
  6
Continuous
 62
     7
370
    25
100
AcDbPolyline
 90
       82
 70
   128
 43
0.0
 10
387.5541132087
 20
-98.0229098501
 10
387.4454586813
 20
-94.8522452726
 10
387.1201485601
 20
-91.8260992921
 10
386.5801392984
 20
-88.9626715066
 10
385.8286785756
 20
-86.2791829076
 10
384.8702857647
 20
-83.7917723114
 10
383.7107247531
 20
-81.5153992979
 10
382.3569692769
 20
-79.4637542424
 10
380.817160981
 20
-77.6491759796
 10
379.1005604535
 20
-76.0825775966
 10
377.2174915322
 20
-74.7733808005
 10
375.1792792149
 20
-73.7294592549
 10
372.9981815505
 20
-72.9570912268
 10
370.6873159169
 20
-72.4609218283
 10
368.260580132
 20
-72.2439350806
 10
365.7325688702
 20
-72.3074359676
 10
363.1184858889
 20
-72.6510425874
 10
360.4340525905
 20
-73.2726884494
 10
357.6954134729
 20
-74.1686349022
 10
354.9190390339
 20
-75.3334936185
 10
352.1216267161
 20
-76.7602590009
 10
349.3200004863
 20
-78.4403503144
 10
346.5310096543
 20
-80.3636632923
 10
343.7714275392
 20
-82.5186309039
 10
341.0578505925
 20
-84.8922929206
 10
338.4065985852
 20
-87.4703738596
 10
335.8336164589
 20
-90.2373688387
 10
333.3543784308
 20
-93.1766368248
 10
330.9837949301
 20
-96.2705007141
 10
328.736122925
 20
-99.5003536453
 10
326.6248801794
 20
-102.8467709028
 10
324.6627639555
 20
-106.2896267395
 10
322.8615746512
 20
-109.8082154151
 10
321.2321448309
 20
-113.3813757235
 10
319.7842740773
 20
-116.9876182581
 10
318.5266700554
 20
-120.605254652
 10
317.4668961438
 20
-124.2125280143
 10
316.6113259476
 20
-127.7877437784
 10
315.9651049665
 20
-131.3094001761
 10
315.5321196495
 20
-134.7563175515
 10
315.3149740213
 20
-138.1077657378
 10
315.3149740213
 20
-141.3435887314
 10
315.5321196495
 20
-144.4443259121
 10
315.9651049665
 20
-147.3913290814
 10
316.6113259476
 20
-150.1668746158
 10
317.4668961438
 20
-152.7542700576
 10
318.5266700554
 20
-155.1379545064
 10
319.7842740773
 20
-157.3035922033
 10
321.2321448309
 20
-159.2381587484
 10
322.8615746512
 20
-160.9300194309
 10
324.6627639555
 20
-162.3689992015
 10
326.6248801794
 20
-163.5464438667
 10
328.736122925
 20
-164.4552721356
 10
330.9837949301
 20
-165.0900182081
 10
333.3543784308
 20
-165.4468646467
 10
335.8336164589
 20
-165.5236653348
 10
338.4065985852
 20
-165.3199583841
 10
341.0578505925
 20
-164.8369689122
 10
343.7714275392
 20
-164.0776016745
 10
346.5310096544
 20
-163.046423595
 10
349.3200004863
 20
-161.7496363001
 10
352.1216267161
 20
-160.195038821
 10
354.9190390339
 20
-158.3919806899
 10
357.6954134729
 20
-156.3513057107
 10
360.4340525905
 20
-154.0852867426
 10
363.1184858889
 20
-151.6075518905
 10
365.7325688702
 20
-148.9330025433
 10
368.260580132
 20
-146.0777237554
 10
370.6873159169
 20
-143.0588875095
 10
372.9981815505
 20
-139.8946494419
 10
375.1792792149
 20
-136.6040396527
 10
377.2174915322
 20
-133.2068482564
 10
379.1005604535
 20
-129.7235063617
 10
380.817160981
 20
-126.1749631966
 10
382.3569692769
 20
-122.5825601174
 10
383.7107247531
 20
-118.9679022587
 10
384.8702857647
 20
-115.3527285984
 10
385.8286785756
 20
-111.7587812161
 10
386.5801392984
 20
-108.2076745343
 10
387.1201485601
 20
-104.7207653264
 10
387.4454586813
 20
-101.3190242747
 10
387.5541132087
 20
-98.0229098501
  0
LWPOLYLINE
  5
C9
330
1F
100
AcDbEntity
  8
0
  6
Continuous
 62
     7
370
    25
100
AcDbPolyline
 90
       70
 70
   128
 43
0.0
 10
627.0511799966
 20
-134.3122504206
 10
626.9433687021
 20
-131.5175377173
 10
626.620828177
 20
-128.6215066126
 10
626.0862310936
 20
-125.6481545322
 10
625.3440072918
 20
-122.6221196079
 10
624.4003070716
 20
-119.5684765181
 10
623.2629502304
 20
-116.5125287112
 10
621.9413612652
 20
-113.4795987331
 10
620.4464912782
 20
-110.4948183967
 10
618.7907272331
 20
-107.5829205321
 10
616.9877893121
 20
-104.7680340419
 10
615.0526172266
 20
-102.0734839621
 10
613.0012464221
 20
-99.5215981833
 10
610.8506752031
 20
-97.1335224348
 10
608.6187238799
 20
-94.9290450642
 10
606.3238871042
 20
-92.9264330654
 10
603.9851806163
 20
-91.1422807121
 10
601.6219836746
 20
-89.5913720525
 10
599.2538784732
 20
-88.2865584042
 10
596.9004878776
 20
-87.2386518642
 10
594.5813128236
 20
-86.4563357159
 10
592.3155707259
 20
-85.9460924774
 10
590.1220362372
 20
-85.7121501848
 10
588.0188856751
 20
-85.7564473578
 10
586.0235464075
 20
-86.0786169358
 10
584.1525524439
 20
-86.6759893204
 10
582.4214074296
 20
-87.5436144958
 10
580.8444561774
 20
-88.6743030466
 10
579.434765802
 20
-90.0586857314
 10
578.2040174418
 20
-91.6852911192
 10
577.1624094654
 20
-93.5406406455
 10
576.3185729644
 20
-95.6093602998
 10
575.6795002338
 20
-97.8743080196
 10
575.2504868317
 20
-100.3167157347
 10
575.0350876981
 20
-102.9163448856
 10
575.0350876981
 20
-105.6516541264
 10
575.2504868317
 20
-108.4999778234
 10
575.6795002338
 20
-111.4377138692
 10
576.3185729644
 20
-114.4405192579
 10
577.1624094654
 20
-117.4835117983
 10
578.2040174418
 20
-120.5414762959
 10
579.434765802
 20
-123.5890734937
 10
580.8444561774
 20
-126.6010500416
 10
582.4214074296
 20
-129.5524477533
 10
584.1525524439
 20
-132.4188104179
 10
586.0235464075
 20
-135.1763864516
 10
588.0188856751
 20
-137.8023257109
 10
590.1220362372
 20
-140.2748688362
 10
592.3155707259
 20
-142.5735275563
 10
594.5813128236
 20
-144.6792544613
 10
596.9004878776
 20
-146.5746008348
 10
599.2538784732
 20
-148.2438612398
 10
601.6219836746
 20
-149.6732036589
 10
603.9851806163
 20
-150.8507841107
 10
606.3238871042
 20
-151.7668447927
 10
608.6187238799
 20
-152.4137949376
 10
610.8506752031
 20
-152.7862737127
 10
613.0012464221
 20
-152.8811946416
 10
615.0526172266
 20
-152.6977711795
 10
616.9877893121
 20
-152.2375232311
 10
618.7907272331
 20
-151.5042645558
 10
620.4464912782
 20
-150.504071166
 10
621.9413612652
 20
-149.2452309789
 10
623.2629502304
 20
-147.738175141
 10
624.4003070716
 20
-145.9953915914
 10
625.3440072918
 20
-144.0313215836
 10
626.0862310936
 20
-141.8622400201
 10
626.620828177
 20
-139.506120594
 10
626.9433687021
 20
-136.9824868529
 10
627.0511799966
 20
-134.3122504206
  0
LWPOLYLINE
  5
CA
330
1F
100
AcDbEntity
  8
0
  6
Continuous
 62
     7
370
    25
100
AcDbPolyline
 90
       77
 70
   128
 43
0.0
 10
632.8494556023
 20
-137.6595236791
 10
632.7407748353
 20
-134.5624603469
 10
632.4154749341
 20
-131.3610729549
 10
631.8757780268
 20
-128.0772302253
 10
631.1253707906
 20
-124.7333641335
 10
630.1693792678
 20
-121.3523166758
 10
629.0143338499
 20
-117.9571838344
 10
627.6681246682
 20
-114.5711578094
 10
626.1399476966
 20
-111.2173685919
 10
624.4402419333
 20
-107.918725963
 10
622.5806180921
 20
-104.6977629965
 10
620.5737792895
 20
-101.5764821356
 10
618.4334342694
 20
-98.5762048935
 10
616.1742037586
 20
-95.7174262059
 10
613.8115205924
 20
-93.0196744301
 10
611.3615242924
 20
-90.5013779462
 10
608.8409508177
 20
-88.1797392728
 10
606.267018241
 20
-86.0706175559
 10
603.6573091316
 20
-84.1884202357
 10
601.0296504489
 20
-82.5460046282
 10
598.4019917663
 20
-81.1545900976
 10
595.7922826569
 20
-80.0236814159
 10
593.2183500801
 20
-79.1610038361
 10
590.6977766054
 20
-78.5724503209
 10
588.2477803055
 20
-78.2620412875
 10
585.8850971392
 20
-78.2318971445
 10
583.6258666285
 20
-78.4822238068
 10
581.4855216084
 20
-79.0113112895
 10
579.4786828058
 20
-79.8155453887
 10
577.6190589646
 20
-80.8894323699
 10
575.9193532013
 20
-82.2256364962
 10
574.3911762297
 20
-83.8150301384
 10
573.044967048
 20
-85.6467561265
 10
571.8899216301
 20
-87.7083019145
 10
570.9339301073
 20
-89.9855850544
 10
570.1835228711
 20
-92.4630493931
 10
569.6438259638
 20
-95.1237713371
 10
569.3185260626
 20
-97.9495754576
 10
569.2098452955
 20
-100.9211586471
 10
569.3185260626
 20
-104.0182219793
 10
569.6438259638
 20
-107.2196093713
 10
570.1835228711
 20
-110.5034521009
 10
570.9339301073
 20
-113.8473181927
 10
571.8899216301
 20
-117.2283656504
 10
573.044967048
 20
-120.6234984918
 10
574.3911762297
 20
-124.0095245168
 10
575.9193532013
 20
-127.3633137343
 10
577.6190589646
 20
-130.6619563632
 10
579.4786828058
 20
-133.8829193297
 10
581.4855216084
 20
-137.0042001906
 10
583.6258666285
 20
-140.0044774327
 10
585.8850971392
 20
-142.8632561203
 10
588.2477803055
 20
-145.5610078961
 10
590.6977766054
 20
-148.0793043799
 10
593.2183500801
 20
-150.4009430534
 10
595.7922826569
 20
-152.5100647703
 10
598.4019917663
 20
-154.3922620905
 10
601.0296504489
 20
-156.034677698
 10
603.6573091316
 20
-157.4260922286
 10
606.267018241
 20
-158.5570009103
 10
608.8409508177
 20
-159.4196784901
 10
611.3615242924
 20
-160.0082320053
 10
613.8115205924
 20
-160.3186410387
 10
616.1742037586
 20
-160.3487851817
 10
618.4334342694
 20
-160.0984585194
 10
620.5737792895
 20
-159.5693710367
 10
622.5806180921
 20
-158.7651369375
 10
624.4402419333
 20
-157.6912499563
 10
626.1399476966
 20
-156.35504583
 10
627.6681246682
 20
-154.7656521878
 10
629.0143338499
 20
-152.9339261997
 10
630.1693792678
 20
-150.8723804117
 10
631.1253707906
 20
-148.5950972718
 10
631.8757780268
 20
-146.1176329331
 10
632.4154749341
 20
-143.4569109891
 10
632.7407748353
 20
-140.6311068686
 10
632.8494556023
 20
-137.6595236791
  0
ENDSEC
  0
SECTION
  2
OBJECTS
  0
DICTIONARY
  5
C
330
0
100
AcDbDictionary
281
     1
  3
ACAD_GROUP
350
D
  3
ACAD_LAYOUT
350
1A
  3
ACAD_MLINESTYLE
350
17
  3
ACAD_PLOTSETTINGS
350
19
  3
ACAD_PLOTSTYLENAME
350
E
  3
ACAD_SCALELIST
350
47
  3
DWGPROPS
350
CB
  0
DICTIONARY
  5
D
102
{ACAD_REACTORS
330
C
102
}
330
C
100
AcDbDictionary
281
     1
  0
DICTIONARY
  5
1A
102
{ACAD_REACTORS
330
C
102
}
330
C
100
AcDbDictionary
281
     1
  3
Layout1
350
1E
  3
Layout2
350
26
  3
Model
350
22
  0
DICTIONARY
  5
17
102
{ACAD_REACTORS
330
C
102
}
330
C
100
AcDbDictionary
281
     1
  3
Standard
350
18
  0
DICTIONARY
  5
19
102
{ACAD_REACTORS
330
C
102
}
330
C
100
AcDbDictionary
281
     1
  0
ACDBDICTIONARYWDFLT
  5
E
102
{ACAD_REACTORS
330
C
102
}
330
C
100
AcDbDictionary
281
     1
  3
Normal
350
F
100
AcDbDictionaryWithDefault
340
F
  0
DICTIONARY
  5
47
102
{ACAD_REACTORS
330
C
102
}
330
C
100
AcDbDictionary
281
     1
  3
A0
350
48
  3
A1
350
49
  3
A2
350
4A
  3
A3
350
4B
  3
A4
350
4C
  3
A5
350
4D
  3
A6
350
4E
  3
A7
350
4F
  3
A8
350
50
  3
A9
350
51
  3
B0
350
52
  3
B1
350
53
  3
B2
350
54
  3
B3
350
55
  3
B4
350
56
  3
B5
350
57
  3
B6
350
58
  3
B7
350
59
  3
B8
350
5A
  3
B9
350
5B
  3
C0
350
5C
  3
C1
350
5D
  3
C2
350
5E
  3
C3
350
5F
  3
C4
350
60
  3
C5
350
61
  3
C6
350
62
  3
C7
350
63
  3
C8
350
64
  3
C9
350
65
  3
D0
350
66
  3
D1
350
67
  3
D2
350
68
  0
XRECORD
  5
CB
102
{ACAD_REACTORS
330
C
102
}
330
C
100
AcDbXrecord
280
     1
  1
DWGPROPS COOKIE
  2

  3

  4

  6

  7

  8
b.kav
  9

300
=
301
=
302
=
303
=
304
=
305
=
306
=
307
=
308
=
309
=
 40
0.0
 41
2460640.270585081
 42
2460640.270585382
  1

 90
        0
  0
LAYOUT
  5
1E
102
{ACAD_REACTORS
330
1A
102
}
330
1A
100
AcDbPlotSettings
  1

  2
none_device
  4

  6

 40
0.0
 41
0.0
 42
0.0
 43
0.0
 44
0.0
 45
0.0
 46
0.0
 47
0.0
 48
0.0
 49
0.0
140
0.0
141
0.0
142
1.0
143
1.0
 70
   688
 72
     1
 73
     0
 74
     5
  7

 75
    16
147
1.0
148
0.0
149
0.0
100
AcDbLayout
  1
Layout1
 70
     1
 71
     1
 10
0.0
 20
0.0
 11
420.0
 21
297.0
 12
0.0
 22
0.0
 32
0.0
 14
1.0000000000E+20
 24
1.0000000000E+20
 34
1.0000000000E+20
 15
-1.0000000000E+20
 25
-1.0000000000E+20
 35
-1.0000000000E+20
146
0.0
 13
0.0
 23
0.0
 33
0.0
 16
1.0
 26
0.0
 36
0.0
 17
0.0
 27
1.0
 37
0.0
 76
     0
330
1B
  0
LAYOUT
  5
26
102
{ACAD_REACTORS
330
1A
102
}
330
1A
100
AcDbPlotSettings
  1

  2
none_device
  4

  6

 40
0.0
 41
0.0
 42
0.0
 43
0.0
 44
0.0
 45
0.0
 46
0.0
 47
0.0
 48
0.0
 49
0.0
140
0.0
141
0.0
142
1.0
143
1.0
 70
   688
 72
     1
 73
     0
 74
     5
  7

 75
    16
147
1.0
148
0.0
149
0.0
100
AcDbLayout
  1
Layout2
 70
     1
 71
     2
 10
0.0
 20
0.0
 11
0.0
 21
0.0
 12
0.0
 22
0.0
 32
0.0
 14
0.0
 24
0.0
 34
0.0
 15
0.0
 25
0.0
 35
0.0
146
0.0
 13
0.0
 23
0.0
 33
0.0
 16
1.0
 26
0.0
 36
0.0
 17
0.0
 27
1.0
 37
0.0
 76
     0
330
23
  0
LAYOUT
  5
22
102
{ACAD_REACTORS
330
1A
102
}
330
1A
100
AcDbPlotSettings
  1

  2
none_device
  4
Letter_(8.50_x_11.00_Inches)
  6

 40
6.35
 41
6.35
 42
6.35000508
 43
6.35000508
 44
215.9
 45
279.4
 46
0.0
 47
0.0
 48
0.0
 49
0.0
140
0.0
141
0.0
142
1.0
143
1.0
 70
  1712
 72
     1
 73
     0
 74
     0
  7

 75
     0
147
1.0
148
0.0
149
0.0
100
AcDbLayout
  1
Model
 70
     1
 71
     0
 10
0.0
 20
0.0
 11
279.4
 21
215.9
 12
0.0
 22
0.0
 32
0.0
 14
0.0
 24
0.0
 34
0.0
 15
279.4
 25
215.9
 35
0.0
146
0.0
 13
0.0
 23
0.0
 33
0.0
 16
1.0
 26
0.0
 36
0.0
 17
0.0
 27
1.0
 37
0.0
 76
     0
330
1F
331
29
  0
MLINESTYLE
  5
18
102
{ACAD_REACTORS
330
17
102
}
330
17
100
AcDbMlineStyle
  2
Standard
 70
     0
  3

 62
   256
 51
90.0
 52
90.0
 71
     2
 49
0.5
 62
   256
  6
BYLAYER
 49
-0.5
 62
   256
  6
BYLAYER
  0
ACDBPLACEHOLDER
  5
F
102
{ACAD_REACTORS
330
E
102
}
330
E
  0
SCALE
  5
48
102
{ACAD_REACTORS
330
47
102
}
330
47
100
AcDbScale
 70
     0
300
1:1
140
1.0
141
1.0
290
     1
  0
SCALE
  5
49
102
{ACAD_REACTORS
330
47
102
}
330
47
100
AcDbScale
 70
     0
300
1:2
140
1.0
141
2.0
290
     0
  0
SCALE
  5
4A
102
{ACAD_REACTORS
330
47
102
}
330
47
100
AcDbScale
 70
     0
300
1:4
140
1.0
141
4.0
290
     0
  0
SCALE
  5
4B
102
{ACAD_REACTORS
330
47
102
}
330
47
100
AcDbScale
 70
     0
300
1:5
140
1.0
141
5.0
290
     0
  0
SCALE
  5
4C
102
{ACAD_REACTORS
330
47
102
}
330
47
100
AcDbScale
 70
     0
300
1:8
140
1.0
141
8.0
290
     0
  0
SCALE
  5
4D
102
{ACAD_REACTORS
330
47
102
}
330
47
100
AcDbScale
 70
     0
300
1:10
140
1.0
141
10.0
290
     0
  0
SCALE
  5
4E
102
{ACAD_REACTORS
330
47
102
}
330
47
100
AcDbScale
 70
     0
300
1:16
140
1.0
141
16.0
290
     0
  0
SCALE
  5
4F
102
{ACAD_REACTORS
330
47
102
}
330
47
100
AcDbScale
 70
     0
300
1:20
140
1.0
141
20.0
290
     0
  0
SCALE
  5
50
102
{ACAD_REACTORS
330
47
102
}
330
47
100
AcDbScale
 70
     0
300
1:30
140
1.0
141
30.0
290
     0
  0
SCALE
  5
51
102
{ACAD_REACTORS
330
47
102
}
330
47
100
AcDbScale
 70
     0
300
1:40
140
1.0
141
40.0
290
     0
  0
SCALE
  5
52
102
{ACAD_REACTORS
330
47
102
}
330
47
100
AcDbScale
 70
     0
300
1:50
140
1.0
141
50.0
290
     0
  0
SCALE
  5
53
102
{ACAD_REACTORS
330
47
102
}
330
47
100
AcDbScale
 70
     0
300
1:100
140
1.0
141
100.0
290
     0
  0
SCALE
  5
54
102
{ACAD_REACTORS
330
47
102
}
330
47
100
AcDbScale
 70
     0
300
2:1
140
2.0
141
1.0
290
     0
  0
SCALE
  5
55
102
{ACAD_REACTORS
330
47
102
}
330
47
100
AcDbScale
 70
     0
300
4:1
140
4.0
141
1.0
290
     0
  0
SCALE
  5
56
102
{ACAD_REACTORS
330
47
102
}
330
47
100
AcDbScale
 70
     0
300
8:1
140
8.0
141
1.0
290
     0
  0
SCALE
  5
57
102
{ACAD_REACTORS
330
47
102
}
330
47
100
AcDbScale
 70
     0
300
10:1
140
10.0
141
1.0
290
     0
  0
SCALE
  5
58
102
{ACAD_REACTORS
330
47
102
}
330
47
100
AcDbScale
 70
     0
300
100:1
140
100.0
141
1.0
290
     0
  0
SCALE
  5
59
102
{ACAD_REACTORS
330
47
102
}
330
47
100
AcDbScale
 70
     0
300
1/128" = 1'-0"
140
0.0078125
141
12.0
290
     0
  0
SCALE
  5
5A
102
{ACAD_REACTORS
330
47
102
}
330
47
100
AcDbScale
 70
     0
300
1/64" = 1'-0"
140
0.015625
141
12.0
290
     0
  0
SCALE
  5
5B
102
{ACAD_REACTORS
330
47
102
}
330
47
100
AcDbScale
 70
     0
300
1/32" = 1'-0"
140
0.03125
141
12.0
290
     0
  0
SCALE
  5
5C
102
{ACAD_REACTORS
330
47
102
}
330
47
100
AcDbScale
 70
     0
300
1/16" = 1'-0"
140
0.0625
141
12.0
290
     0
  0
SCALE
  5
5D
102
{ACAD_REACTORS
330
47
102
}
330
47
100
AcDbScale
 70
     0
300
3/32" = 1'-0"
140
0.09375
141
12.0
290
     0
  0
SCALE
  5
5E
102
{ACAD_REACTORS
330
47
102
}
330
47
100
AcDbScale
 70
     0
300
1/8" = 1'-0"
140
0.125
141
12.0
290
     0
  0
SCALE
  5
5F
102
{ACAD_REACTORS
330
47
102
}
330
47
100
AcDbScale
 70
     0
300
3/16" = 1'-0"
140
0.1875
141
12.0
290
     0
  0
SCALE
  5
60
102
{ACAD_REACTORS
330
47
102
}
330
47
100
AcDbScale
 70
     0
300
1/4" = 1'-0"
140
0.25
141
12.0
290
     0
  0
SCALE
  5
61
102
{ACAD_REACTORS
330
47
102
}
330
47
100
AcDbScale
 70
     0
300
3/8" = 1'-0"
140
0.375
141
12.0
290
     0
  0
SCALE
  5
62
102
{ACAD_REACTORS
330
47
102
}
330
47
100
AcDbScale
 70
     0
300
1/2" = 1'-0"
140
0.5
141
12.0
290
     0
  0
SCALE
  5
63
102
{ACAD_REACTORS
330
47
102
}
330
47
100
AcDbScale
 70
     0
300
3/4" = 1'-0"
140
0.75
141
12.0
290
     0
  0
SCALE
  5
64
102
{ACAD_REACTORS
330
47
102
}
330
47
100
AcDbScale
 70
     0
300
1" = 1'-0"
140
1.0
141
12.0
290
     0
  0
SCALE
  5
65
102
{ACAD_REACTORS
330
47
102
}
330
47
100
AcDbScale
 70
     0
300
1-1/2" = 1'-0"
140
1.5
141
12.0
290
     0
  0
SCALE
  5
66
102
{ACAD_REACTORS
330
47
102
}
330
47
100
AcDbScale
 70
     0
300
3" = 1'-0"
140
3.0
141
12.0
290
     0
  0
SCALE
  5
67
102
{ACAD_REACTORS
330
47
102
}
330
47
100
AcDbScale
 70
     0
300
6" = 1'-0"
140
6.0
141
12.0
290
     0
  0
SCALE
  5
68
102
{ACAD_REACTORS
330
47
102
}
330
47
100
AcDbScale
 70
     0
300
1'-0" = 1'-0"
140
12.0
141
12.0
290
     0
  0
ENDSEC
  0
EOF
